Guitaretab - guitar tabs
Song name
# A B C D E F G H I J K L M N O P Q R S T U V W X Y Z

Enter Shikari - Mothership tab

Enter Shikari
Mothership

This is a proper tab, made by enter shikari.
Hope you guys and girls enjoy it

It's played in drop C#, so basically drop D but all the strings tuned half a step down

H = hammer on
P = pull off
> = slide up

D*-----------   ------------------------------------|
A*-----------   ------------------------------------|
F*-----------   ------------------------------------| all tapped
C*0             -12-0-12-0-10-0-8-0-7-0-5-0-3-0-2-0-| with left hand
G*0             ------------------------------------|
C*0 let ring    ------------------------------------|

-------------------------|
-------------------------|
-------------------------|
-0000-00-0-0-0-0-0000-00-| x 3
-0000-00-0-0-0-0-0000-00-|
-0000-00-0-0-0-0-0000-00-|

------------------------------------------------------|
------------------------------------------------------|
---------------------------------------------7-7-7-9--|
-0000-00-0-0-0-0-h12p-0-h10-h12p-0-h8-h12p-0----------|
-0000-00-0-0-0-0-----------------------------8-8-8-10-|
-0000-00-0-0-0-0--------------------------------------|

-------------------------------------------------|
-------------------------------------------------|
-7-7-7-7-7-7-7-7-7-7-7-7-7-7-7-7-7-7-7-7-7-7-7-7-|
-0-0-0-0-0-0-0-0-0-0-0-0-0-0-0-0-0-0-0-0-0-0-0-0-|
-5-5-5-5-5-5-5-5-3-3-3-3-3-3-3-3-8-8-8-8-8-8-8-8-|
-------------------------------------------------|

-------------------------|
-------------------------|
--7--7--7--7--7--7--7--7-|
--0--0--0--0--0--0--0--0-|
-10-10-10-10-10-10-10-10-|
-------------------------|

-------------------------|
-------------------------|
-------------------------|
-0000-00-0-0-0-0-0000-00-| x 2
-0000-00-0-0-0-0-0000-00-|
-0000-00-0-0-0-0-0000-00-|

--------------------------------------------------------|
-------6---6---6---6---8---8---8---8---10--10--10--10---|
---------9---9---9---9---9---9---9---9---10--10--10--10-|
-0        ----------------------------------------------|
-0        ----------------------------------------------|
-0let ring----------------------------------------------|

------------------|
--8---8---8---8---|
---10--10--10--10-|
------------------|
------------------|
------------------|

-----------------------------------------------------|
-11--11--11-11-11--11--11--11--11--6--6-6-6--6--6--6-|
-14--14--14-14-14--14--14--14--14--9--9-9-9--9--9--9-| x4
-----------------------------------------------------|
-----------------------------------------------------|
-----------------------------------------------------|

Big Chorus Riff
------------------------------------------------------------|
------------------------------------------------------------|
------------------------------------------------------------|
------------------------------------------------------------|
----------7p-0-h8p-0-h7p-0-h5p-0-h3p-0-h5p-0---------3--3-3-|
-0-h7-h10------------------------------------0-h2-h3-2--2-2-|

---------------------------------------------------------------|
----------------------------------------------------------------|
-----12---------------------------------------------------------|
----------------------------------------------------------------|
->12-------------3---7p-0-h8p-0-h10p-0-h8p-0-h7p-0----------5---|
---------0-h3-h5-3----------------------------------0-h5-h7-5---|

-----------|
-----------|
-7-->9->10-| repeat whole chorus riff 4 times
-----------|
-8->10->12-|
-----------|

Bridge Riff
----------------------------------------|
----------------------------------------|
-7-7-7--7p-0-------------7-7-7--7->9>10-| x 4
-6-6-6-------h7p-0-h6p-0-5-5-5----------|
-8-8-8-------------------8-8-8--8>10>11-|
-6-6-6-------------------5-5-5----------|

Quiet bit (clean)
-----------------------------------------------|
-----------------------------------------------|
-10----10----10----10----12----12----9----9----|
--0-----0-----0-----0-----0-----0----0----0----| x 2
----12----12----12----12----13----13---10---10-|
-----0-----0-----0-----0-----0-----0----0----0-|

------------------------------------------------|
------------------------------------------------|
-10----10----10----10-----9----9----12----12----|
--8-----8-----8-----8-----8----8-----8-----8----|
----12----12----12----12----10---10----10----10-|
-----8-----8-----8-----8-----8----8-----8-----8-|

------------------------------------------------|
------------------------------------------------|
-10----10----10----10-----9----9----12----12----|
--8-----8-----8-----8-----8----8-----8-----8----|
----12----12----12----12------------------------|
-----8-----8-----8-----8----10---10----10----10-|
[ Tab from: http://www.guitaretab.com/e/enter-shikari/80678.html ]
Disco BEAT (Dist)
--------------------------------------------------|
--------------------------------------------------|
-10-10------12-12---9--9--10-10------12-12---9--9-|
--------------------------------------------------|
-12-12------13-13--10-10--12-12------13-13--10-10-|
--------------------------------------------------|

(Clean)
------------------------------------------------|
------------------------------------------------|
-10----10----10----10-----9----9----12----12----|
--8-----8-----8-----8-----8----8-----8-----8----|
----12----12----12----12----10---10----10----10-|
-----8-----8-----8-----8-----8----8-----8-----8-|

------------------------------------------------|
------------------------------------------------|
-10----10----10----10-----9----9----12----12----|
--8-----8-----8-----8-----8----8-----8-----8----|
----12----12----12----12------------------------|
-----8-----8-----8-----8----10---10----10----10-|

Disco BEAT (Dist)
--------------------------------------------------|
--------------------------------------------------|
-10-10------12-12---9--9--10-10------12-12---9--9-|
--------------------------------------------------|
-12-12------13-13--10-10--12-12------13-13--10-10-|
--------------------------------------------------|

(Dist)
------------------------------------------------|
------------------------------------------------|
-10----10----10----10-----9----9----12----12----|
--8-----8-----8-----8-----8----8-----8-----8----|
----12----12----12----12----10---10----10----10-|
-----8-----8-----8-----8-----8----8-----8-----8-|

------------------------------------------------|
------------------------------------------------|
-10----10----10----10-----9----9----12----12----|
--8-----8-----8-----8-----8----8-----8-----8----|
----12----12----12----12------------------------|
-----8-----8-----8-----8----10---10----10----10-|

------------|
------------|
------------|
-0
-0
-0 let ring

small riff, pretty much all pull offs and hammer ons
----------------------------------|
----------------------------------|
--------9--0-10-0-9-0-7-0-5-0-7-0-|
-0-7-10---------------------------| x 8
----------------------------------|
----------------------------------|

Big Chorus Riff
------------------------------------------------------------|
------------------------------------------------------------|
------------------------------------------------------------|
------------------------------------------------------------|
----------7p-0-h8p-0-h7p-0-h5p-0-h3p-0-h5p-0---------3--3-3-|
-0-h7-h10------------------------------------0-h2-h3-2--2-2-|

---------------------------------------------------------------|
----------------------------------------------------------------|
-----12---------------------------------------------------------|
----------------------------------------------------------------|
->12-------------3---7p-0-h8p-0-h10p-0-h8p-0-h7p-0----------5---|
---------0-h3-h5-3----------------------------------0-h5-h7-5---|

-----------|
-----------|
-7-->9->10-| repeat whole chorus riff 4 times
-----------|
-8->10->12-|
-----------|

Bridge Riff
----------------------------------------|
----------------------------------------|
-7-7-7--7p-0-------------7-7-7--7->9>10-| x 4
-6-6-6-------h7p-0-h6p-0-5-5-5----------|
-8-8-8-------------------8-8-8--8>10>11-|
-6-6-6-------------------5-5-5----------|


--------------------------------------------------|
--------------------------------------------------|
-10-10------12-12---9--9--10-10------12-12---9--9-|
--------------------------------------------------|
-12-12------13-13--10-10--12-12------13-13--10-10-|
--------------------------------------------------|

WALK THE PLANK BRK DWN
---------------------------------------------|
---------------------------------------------|
---------------------------------------------|
-000000000----000--000-000000000----000--000-| x 2
-000000000----000--000-000000000----000--000-|
-000000000----000--000-000000000----000--000-|

---------------------------------------------------|
----------->11-11-11-------------------------------|
----------->14-14-14-------------------------------|
-333333333----------333--333-333333333----555--555-| x 2
-333333333----------333--333-333333333----555--555-|
-333333333----------333--333-333333333----555--555-|

----------------------------------------------------|
--------------------------------->11-11-11----------|
--------------------------------->14-14-14----------|
-000000000----000--000-333333333-----------555--555-| x 2
-000000000----000--000-333333333-----------555--555-|
-000000000----000--000-333333333-----------555--555-|

Funky riff
--------------------------------------|
--------------------------------------|
-----12--------17------>12--------17~-|
-------->14-------17-------->14-------|  x  2
->12--------15-------15---12----15----|
--------------------------------------|

SAFE
Related for Mothership tab