Song name
# A B C D E F G H I J K L M N O P Q R S T U V W X Y Z

Enter Shikari - Sorry Your Not A Winner tab

Tabbed By: zimbo125
Email: zimbo125@hotmail.co.uk
Tuning: DADGBE

INTRO:

E|----------|------------|---------------------------|
B|----------|------------|---------------------------|
G|----------|------------|---------------------------|   
D|----------|---------10-|-----10-10-10-----10-10-10-|
A|----7-8-3-|----7-8-----|-0-0-12-12-12-0-0-12-12-12-|
D|-0-0------|-0-0--------|-0-0----------0-0----------|
                       +
E|----------|------------|-------------|
B|----------|------------|-------------|
G|----------|------------|-------------|      Clap Clap Clap
D|----------|---------10-|----10-10-10-|
A|----7-8-3-|---7--8-----|-00-12-12-12-|
D|-0-0------|-00-0--0----|-00---0---0--|

VERSE:

Scratch card glory!       Or waist low pleasure
E|----------|-----------|---------------------------|
B|----------|-----------|---------------------------|
G|----------|-----------|---------------------------|   
D|----------|--------10-|-----10-10-10-----10-10-10-|
A|----7-8-3-|----7-8----|-0-0-12-12-12-0-0-12-12-12-|
D|-0-0------|-0-0-------|-0-0----------0-0----------|

Black eyes nose bleeds!   Don't look back now
E|----------|-----------|---------------------------|
B|----------|-----------|---------------------------|
G|----------|-----------|---------------------------|   
D|----------|--------10-|-----10-10-10-----10-10-10-|
A|----7-8-3-|----7-8----|-0-0-12-12-12-0-0-12-12-12-|
D|-0-0------|-0-0-------|-0-0----------0-0----------|

My white abode            Do you remember
E|----------|-----------|---------------------------|
B|----------|-----------|---------------------------|
G|----------|-----------|---------------------------|   
D|----------|--------10-|-----10-10-10-----10-10-10-|
A|----7-8-3-|----7-8----|-0-0-12-12-12-0-0-12-12-12-|
D|-0-0------|-0-0-------|-0-0----------0-0----------|


My white abode            
E|----------|-----------|---------------------------|
B|----------|-----------|---------------------------|
G|----------|-----------|---------------------------|   
D|----------|--------10-|-----10-10-10-----10-10-10-|
A|----7-8-3-|----7-8----|-0-0-12-12-12-0-0-12-12-12-|
D|-0-0------|-0-0-------|-0-0----------0-0----------|

But its such a thrill just to find out...

CHORUS:

Sorry your not!               A winner
E|--------------------------|-------------|-----------------|
B|--------------------------|-------------|-----------------|
G|--------------------------|-------------|-----------------|
D|-------10-------10-----10-|-10-10-10-10-|-8-8-8-8--88888/-|
A|-0-0-0-12-0-0-0-12-0-0-12-|-10-10-10-10-|-8-8-8-8--88888/-|
D|-0-0-0----0-0-0----0-0----|-10-10-10-10-|-8-8-8-8--88888/-|


With the air so cold and a mind so bitter
E|-----------------------|---------|-----------------|
B|-----------------------|---------|-----------------|
G|-----------------------|---------|-----------------|
D|-3-3-3-3--3-3-3-3--3-3-|-5-5-5-5-|-8-8-8-8--88888/-|
A|-3-3-3-3--3-3-3-3--3-3-|-5-5-5-5-|-8-8-8-8--88888/-|
D|-3-3-3-3--3-3-3-3--3-3-|-5-5-5-5-|-8-8-8-8--88888/-|


What have you got!           To loose
E|--------------------------|-------------|-----------------|
B|--------------------------|-------------|-----------------|
G|--------------------------|-------------|-----------------|
D|-------10-------10-----10-|-10-10-10-10-|-8-8-8-8--88888/-|
A|-0-0-0-12-0-0-0-12-0-0-12-|-10-10-10-10-|-8-8-8-8--88888/-|
D|-0-0-0----0-0-0----0-0----|-10-10-10-10-|-8-8-8-8--88888/-|


but false intentions and a life so pretentious
E|-----------------------|---------|-----------------|
B|-----------------------|---------|-----------------|
G|-----------------------|---------|-----------------|
D|-3-3-3-3--3-3-3-3--3-3-|-5-5-5-5-|-8-8-8-8--88888/-|
A|-3-3-3-3--3-3-3-3--3-3-|-5-5-5-5-|-8-8-8-8--88888/-|
D|-3-3-3-3--3-3-3-3--3-3-|-5-5-5-5-|-8-8-8-8--88888/-|


INTRO:

E|----------|------------|---------------------------|
B|----------|------------|---------------------------|
G|----------|------------|---------------------------|   
D|----------|---------10-|-----10-10-10-----10-10-10-|
A|----7-8-3-|----7-8-----|-0-0-12-12-12-0-0-12-12-12-|
D|-0-0------|-0-0--------|-0-0----------0-0----------|
                       +
E|----------|------------|-------------|
B|----------|------------|-------------|
G|----------|------------|-------------|      Clap Clap Clap
D|----------|---------10-|----10-10-10-|
A|----7-8-3-|---7--8-----|-00-12-12-12-|
D|-0-0------|-00-0--0----|-00---0---0--|

VERSE:

Scratch card glory!       Or waist low pleasure
E|----------|-----------|---------------------------|
B|----------|-----------|---------------------------|
G|----------|-----------|---------------------------|   
D|----------|--------10-|-----10-10-10-----10-10-10-|
A|----7-8-3-|----7-8----|-0-0-12-12-12-0-0-12-12-12-|
D|-0-0------|-0-0-------|-0-0----------0-0----------|

Black eyes nose bleeds!   Don't look back now
E|----------|-----------|---------------------------|
B|----------|-----------|---------------------------|
G|----------|-----------|---------------------------|   
D|----------|--------10-|-----10-10-10-----10-10-10-|
A|----7-8-3-|----7-8----|-0-0-12-12-12-0-0-12-12-12-|
D|-0-0------|-0-0-------|-0-0----------0-0----------|

My white abode            Do you remember
E|----------|-----------|---------------------------|
B|----------|-----------|---------------------------|
G|----------|-----------|---------------------------|   
D|----------|--------10-|-----10-10-10-----10-10-10-|
A|----7-8-3-|----7-8----|-0-0-12-12-12-0-0-12-12-12-|
D|-0-0------|-0-0-------|-0-0----------0-0----------|


My white abode            
E|----------|-----------|---------------------------|
B|----------|-----------|---------------------------|
G|----------|-----------|---------------------------|   
D|----------|--------10-|-----10-10-10-----10-10-10-|
A|----7-8-3-|----7-8----|-0-0-12-12-12-0-0-12-12-12-|
D|-0-0------|-0-0-------|-0-0----------0-0----------|

But its such a thrill just to find out...

CHORUS:

Sorry your not!               A winner
E|--------------------------|-------------|-----------------|
B|--------------------------|-------------|-----------------|
G|--------------------------|-------------|-----------------|
D|-------10-------10-----10-|-10-10-10-10-|-8-8-8-8--88888/-|
A|-0-0-0-12-0-0-0-12-0-0-12-|-10-10-10-10-|-8-8-8-8--88888/-|
D|-0-0-0----0-0-0----0-0----|-10-10-10-10-|-8-8-8-8--88888/-|


With the air so cold and a mind so bitter
E|-----------------------|---------|-----------------|
B|-----------------------|---------|-----------------|
G|-----------------------|---------|-----------------|
D|-3-3-3-3--3-3-3-3--3-3-|-5-5-5-5-|-8-8-8-8--88888/-|
A|-3-3-3-3--3-3-3-3--3-3-|-5-5-5-5-|-8-8-8-8--88888/-|
D|-3-3-3-3--3-3-3-3--3-3-|-5-5-5-5-|-8-8-8-8--88888/-|


What have you got!           To loose
E|--------------------------|-------------|-----------------|
B|--------------------------|-------------|-----------------|
G|--------------------------|-------------|-----------------|
D|-------10-------10-----10-|-10-10-10-10-|-8-8-8-8--88888/-|
A|-0-0-0-12-0-0-0-12-0-0-12-|-10-10-10-10-|-8-8-8-8--88888/-|
D|-0-0-0----0-0-0----0-0----|-10-10-10-10-|-8-8-8-8--88888/-|


but false intentions and a life so pretentious
E|-----------------------|---------|-----------------|
B|-----------------------|---------|-----------------|
G|-----------------------|---------|-----------------|
D|-3-3-3-3--3-3-3-3--3-3-|-5-5-5-5-|-8-8-8-8--88888/-|
A|-3-3-3-3--3-3-3-3--3-3-|-5-5-5-5-|-8-8-8-8--88888/-|
D|-3-3-3-3--3-3-3-3--3-3-|-5-5-5-5-|-8-8-8-8--88888/-|


E|--------------|
B|--------------|
G|--------------|
D|-0-0-0-12~----|
A|-0-0-0-12~----|
D|-0-0-0-12~----|

BRIDGE:


E|-------------------------------------------------|
B|-13-13-13-13-13-13-13-13-13-13-13-13-13-13-13-13-|
G|-14-14-14-14-14-14-14-14-14-14-14-14-14-14-14-14-|
D|-15-15-15-15-15-15-15-15-15-15-15-15-15-15-15-15-|
A|-------------------------------------------------|
D|-------------------------------------------------|

E|-------------------------|
B|-------------------------|
G|-14-14-14-14-14-14-14-14-|
D|-15-15-15-15-15-15-15-15-|
A|-13-13-13-13-13-13-13-13-|
D|-------------------------|

E|-------------------------|
B|-------------------------|
G|-12-12-12-12-12-12-12-12-|
D|-14-14-14-14-14-14-14-14-|
A|-15-15-15-15-15-15-15-15-|
D|-------------------------|

E|-------------------------------------------------|
B|-13-13-13-13-13-13-13-13-13-13-13-13-13-13-13-13-|
G|-14-14-14-14-14-14-14-14-14-14-14-14-14-14-14-14-|
D|-15-15-15-15-15-15-15-15-15-15-15-15-15-15-15-15-|
A|-------------------------------------------------|
D|-------------------------------------------------|

E|-------------------------|
B|-------------------------|
G|-14-14-14-14-14-14-14-14-|
D|-15-15-15-15-15-15-15-15-|
A|-13-13-13-13-13-13-13-13-|
D|-------------------------|

E|-------------------------|
B|-------------------------|
G|-12-12-12-12-12-12-12-12-|
D|-14-14-14-14-14-14-14-14-|
A|-15-15-15-15-15-15-15-15-|
D|-------------------------|

Scratch card glory
E|-------------------------------------------------|
B|-13-13-13-13-13-13-13-13-13-13-13-13-13-13-13-13-|
G|-14-14-14-14-14-14-14-14-14-14-14-14-14-14-14-14-|
D|-15-15-15-15-15-15-15-15-15-15-15-15-15-15-15-15-|
A|-------------------------------------------------|
D|-------------------------------------------------|

Waist low pleasure
E|-------------------------|
B|-------------------------|
G|-14-14-14-14-14-14-14-14-|
D|-15-15-15-15-15-15-15-15-|
A|-13-13-13-13-13-13-13-13-|
D|-------------------------|

E|-------------------------|
B|-------------------------|
G|-12-12-12-12-12-12-12-12-|
D|-14-14-14-14-14-14-14-14-|
A|-15-15-15-15-15-15-15-15-|
D|-------------------------|

Black eyes nose bleeds
E|-------------------------------------------------|
B|-13-13-13-13-13-13-13-13-13-13-13-13-13-13-13-13-|
G|-14-14-14-14-14-14-14-14-14-14-14-14-14-14-14-14-|
D|-15-15-15-15-15-15-15-15-15-15-15-15-15-15-15-15-|
A|-------------------------------------------------|
D|-------------------------------------------------|

Dont look back now
E|-------------------------|
B|-------------------------|
G|-14-14-14-14-14-14-14-14-|
D|-15-15-15-15-15-15-15-15-|
A|-13-13-13-13-13-13-13-13-|
D|-------------------------|

E|-------------------------|
B|-------------------------|
G|-12-12-12-12-12-12-12-12-|
D|-14-14-14-14-14-14-14-14-|
A|-15-15-15-15-15-15-15-15-|
D|-------------------------|

My white abode
E|-------------------------------------------------|
B|-13-13-13-13-13-13-13-13-13-13-13-13-13-13-13-13-|
G|-14-14-14-14-14-14-14-14-14-14-14-14-14-14-14-14-|
D|-15-15-15-15-15-15-15-15-15-15-15-15-15-15-15-15-|
A|-------------------------------------------------|
D|-------------------------------------------------|

Do you remember
E|-------------------------|
B|-------------------------|
G|-14-14-14-14-14-14-14-14-|
D|-15-15-15-15-15-15-15-15-|
A|-13-13-13-13-13-13-13-13-|
D|-------------------------|

E|-------------------------|
B|-------------------------|
G|-12-12-12-12-12-12-12-12-|
D|-14-14-14-14-14-14-14-14-|
A|-15-15-15-15-15-15-15-15-|
D|-------------------------|

I sweat, I ache
E|-------------------------------------------------|
B|-13-13-13-13-13-13-13-13-13-13-13-13-13-13-13-13-|
G|-14-14-14-14-14-14-14-14-14-14-14-14-14-14-14-14-|
D|-15-15-15-15-15-15-15-15-15-15-15-15-15-15-15-15-|
A|-------------------------------------------------|
D|-------------------------------------------------|

E|-------------------------|
B|-------------------------|
G|-14-14-14-14-14-14-14-14-|
D|-15-15-15-15-15-15-15-15-|
A|-13-13-13-13-13-13-13-13-|
D|-------------------------|

E|-------------------------|
B|-------------------------|
G|-12-12-12-12-12-12-12-12-|
D|-14-14-14-14-14-14-14-14-|
A|-15-15-15-15-15-15-15-15-|
D|-------------------------|



CHORUS:

Sorry your not!               A winner
E|--------------------------|-------------|-----------------|
B|--------------------------|-------------|-----------------|
G|--------------------------|-------------|-----------------|
D|-------10-------10-----10-|-10-10-10-10-|-8-8-8-8--88888/-|
A|-0-0-0-12-0-0-0-12-0-0-12-|-10-10-10-10-|-8-8-8-8--88888/-|
D|-0-0-0----0-0-0----0-0----|-10-10-10-10-|-8-8-8-8--88888/-|


With the air so cold and a mind so bitter
E|-----------------------|---------|-----------------|
B|-----------------------|---------|-----------------|
G|-----------------------|---------|-----------------|
D|-3-3-3-3--3-3-3-3--3-3-|-5-5-5-5-|-8-8-8-8--88888/-|
A|-3-3-3-3--3-3-3-3--3-3-|-5-5-5-5-|-8-8-8-8--88888/-|
D|-3-3-3-3--3-3-3-3--3-3-|-5-5-5-5-|-8-8-8-8--88888/-|


What have you got!           To loose
E|--------------------------|-------------|-----------------|
B|--------------------------|-------------|-----------------|
G|--------------------------|-------------|-----------------|
D|-------10-------10-----10-|-10-10-10-10-|-8-8-8-8--88888/-|
A|-0-0-0-12-0-0-0-12-0-0-12-|-10-10-10-10-|-8-8-8-8--88888/-|
D|-0-0-0----0-0-0----0-0----|-10-10-10-10-|-8-8-8-8--88888/-|


but false intentions and a life so pretentious
E|-----------------------|---------|-----------------|
B|-----------------------|---------|-----------------|
G|-----------------------|---------|-----------------|
D|-3-3-3-3--3-3-3-3--3-3-|-5-5-5-5-|-8-8-8-8--88888/-|
A|-3-3-3-3--3-3-3-3--3-3-|-5-5-5-5-|-8-8-8-8--88888/-|
D|-3-3-3-3--3-3-3-3--3-3-|-5-5-5-5-|-8-8-8-8--88888/-|


Eb|-------------------|
Bb|-------------------|
Gb|-------------------| 
Db|-------12-------12-|
Ab|-0-0-0-10-0-0-0-10-|
Db|-0-0-0----0-0-0----|

BREAKDOWN: 

E|--------------------------|
B|--------------------------|
G|--------------------------|
D|-------10-------10-----10-|   
A|-0-0-0-12-0-0-0-12-0-0-12-|
D|-0-0-0----0-0-0----0-0----|

E|--------------------------|
B|--------------------------|
G|--------------------------|
D|-------10-------10-----10-|   
A|-0-0-0-12-0-0-0-12-0-0-12-|
D|-0-0-0----0-0-0----0-0----|

E|--------------------------|
B|--------------------------|
G|--------------------------|
D|-------10-------10-----10-|   
A|-0-0-0-12-0-0-0-12-0-0-12-|
D|-0-0-0----0-0-0----0-0----|


E|----------|
B|----------|
G|----------| 
D|----------| 
A|-00000000-|
D|-00000000-|
  
What? What? What?

E|--------------------------|
B|--------------------------|
G|--------------------------|
D|-------10------10------10-|  
A|-0-0-0-12-0-0-0-12-0-0-12-|
D|-0-0-0----0-0-0----0-0----|

E|---------------------|
B|---------------------|
G|---------------------| 
D|---------------------| 
A|-00000000-0-0-0--0-0-|
D|-00000000-0-0-0--0-0-|

E|---------------------|
B|---------------------|
G|---------------------| 
D|---------------------| 
A|-00000000-0-0-0--0-0-|
D|-00000000-0-0-0--0-0-|

E|---------------------|
B|---------------------|
G|---------------------| 
D|---------------------| 
A|-00000000-0-0-0--0-0-|
D|-00000000-0-0-0--0-0-|

E|-------------|
B|-------------|
G|-------------|
D|-------------| 
A|-00-00-00-00-|
D|-00-00-00-00-|

OUTRO:
                 Insert your coin
E|-----------------------------------|
B|-----------------------------------|
G|-----------------------------------| 
D|-----------------------------------| 
A|-00-00-00-00--11-11-11-11-33-33-33-|
D|-00-00-00-00--11-11-11-11-33-33-33-|

                 Please try again
E|-----------------------------------|
B|-----------------------------------|
G|-----------------------------------| 
D|-----------------------------------| 
A|-00-00-00-00--11-11-11-11-33-33-33-|
D|-00-00-00-00--11-11-11-11-33-33-33-|

                 Insert your coin
E|-----------------------------------|
B|-----------------------------------|
G|-----------------------------------| 
D|-----------------------------------| 
A|-00-00-00-00--11-11-11-11-33-33-33-|
D|-00-00-00-00--11-11-11-11-33-33-33-|

                 Please try again
E|--------------------------------------|
B|--------------------------------------|
G|--------------------------------------| 
D|--------------------------------------| 
A|-00-00-00-00--11-11-11-11-33-33-33-00-|
D|-00-00-00-00--11-11-11-11-33-33-33-00-|

All Lyrics on outro are followed up with the same lyrics but screamo)

+  pitch harmonic
/  slide down

Tap to rate this tab
# A B C D E F G H I J K L M N O P Q R S T U V W X Y Z