Song name
# A B C D E F G H I J K L M N O P Q R S T U V W X Y Z

Enter Shikari - Stand Your Ground This Is Achient Land tab

Help us improve GuitareTab! Take a short survey!
-------------------------------------------------------------------------------
	Stand your ground; this is Achient Land - Enter Shikari
-------------------------------------------------------------------------------
Tabbed by: Ben Hough	
Email: ben_hough@hotmail.co.uk

Tuning: Normal


This is played quite fast but it's easy, so it's fun to learn.

Let it ring!

[ 1 + 2 + 3 + 4 + 1 + 2 + 3 + 4 + 1 + 2 + 3 + 4 + 1 + 2 + 3 + 4 + ]       

e|----------------------------------------------------------------|       
B|5-4-5-4-5-4-5-4-5-4-5-4-5---------------------------------------|       
G|--------------------------1-------------------------------------|
D|----------------------------------------------------------------|	  
A|----------------------------------------------------------------|	  
E|----------------------------------------------------------------|       

[ 1 + 2 + 3 + 4 + 1 + 2 + 3 + 4 + 1 + 2 + 3 + 4 + 1 + 2 + 3 + 4 + ]       

e|----------------------------------------------------------------|       
B|5-4-5-4-5-4-5-4-5-4-5-4-5-4-------------------9---9-------------|       
G|----------------------------7---------------6---6---------------|
D|----------------------------------------------------------------|	  
A|----------------------------------------------------------------|	  
E|----------------------------------------------------------------|


      *Repeat that again, without the 6-9-6-9 bit on the 4th bar*
				Then... 

[ 1 + 2 + 3 + 4 + 1 + 2 + 3 + 4 + 1 + 2 + 3 + 4 + 1 + 2 + 3 + 4 + ]

e|----------------------------------------------------------------|
B|2->->->->->->->-9->->->->->->->-7->->->->->->->->->->->->->->->-|
G|----------------------------------------------------------------|
D|----------------------------------------------------------------|
A|----------------------------------------------------------------|
E|----------------------------------------------------------------|



| /  slide up
| \  slide down
| h  hammer-on
| p  pull-off
| ~  vibrato
| +  harmonic
| x  Mute note
===============================================================================
Related for Stand Your Ground This Is Achient Land tab