Song name
# A B C D E F G H I J K L M N O P Q R S T U V W X Y Z

Enter Shikari - Stand Your Ground This Is Ancient Land tab

0:27

e|----------------------------------------------------------------|       
B|5-4-5-4-5-4-5-4-5-4-5-4-5---------------------------------------|       
G|----------------------------------------------------------------|
D|--------------------------6-------------------------------------|	  
A|----------------------------------------------------------------|	  
E|----------------------------------------------------------------|       

0:34

e|----------------------------------------------------------------|       
B|5-4-5-4-5-4-5-4-5-4-5-4-5-4-8-----------------10-10---9---------|       
G|--------------------------------------------6-------6-----------|
D|----------------------------------------------------------------|	  
A|----------------------------------------------------------------|	  
E|----------------------------------------------------------------|

0:41

e|----------------------------------------------------------------|       
B|5-4-5-4-5-4-5-4-5-4-5-4-5---------------------------------------|       
G|----------------------------------------------------------------|
D|--------------------------6-------------------------------------|	  
A|----------------------------------------------------------------|	  
E|----------------------------------------------------------------|       

0:47

e|----------------------------------------------------------------|       
B|5-4-5-4-5-4-5-4-5-4-5-4-5-4-8-----------------------------------|       
G|----------------------------------------------------------------|
D|----------------------------------------------------------------|	  
A|----------------------------------------------------------------|	  
E|----------------------------------------------------------------|

0:54

e|----------------------------------------------------------------|
B|2---------------9---------------7-------------------------------|
G|----------------------------------------------------------------|
D|----------------------------------------------------------------|
A|----------------------------------------------------------------|
E|----------------------------------------------------------------|
Tap to rate this tab
 
# A B C D E F G H I J K L M N O P Q R S T U V W X Y Z