Song name
# A B C D E F G H I J K L M N O P Q R S T U V W X Y Z

Enter Shikari - Enter Shikari tab

Help us improve GuitareTab! Take a short survey!
Artist: Enter Shikari
Song: Enter Shikari
Album: Take To the Skies
Tabbed By: Kiran Marshall

Great song from a great band, and fairly easy to play too. 
Also, the piece is in 4/4 and I have included barlines for you.
The circle things at the end of phrases just before barlines mean repeat. 

Tuning: Drop D flat 

Eb
Bb
Gb
Db
Ab
Db

Although it may sound like it, there is no guitar on the 'SHIT!'

"I've been hiding here..." (you can work out the rhythm)

Eb|----------------|------------------------|
Bb|----------------|------------------6/11-o|
Gb|----------------|------------------9/14--|
Db|0-0-0-0-0-0-0-0-|-0-0-0-0-0-0-0-0--------|
Ab|0-0-0-0-0-0-0-0-|-0-0-0-0-0-0-0-0-------o|
Db|0-0-0-0-0-0-0-0-|-0-0-0-0-0-0-0-0--------|
   . . . . . . . .   . . . . . . . .  

"Your life's about to flash..." (same rhythm as above)

Eb|----------------|--------------------|
Bb|----------------|-------------------o|
Gb|----------------|--------------------|
Db|0-0-0-0-0-0-0-0-|-0-0-0-0-0-0-0-0----|
Ab|0-0-0-0-0-0-0-0-|-0-0-0-0-0-0-0-0---o|
Db|0-0-0-0-0-0-0-0-|-0-0-0-0-0-0-0-0----|
   . . . . . . . .   . . . . . . . .

Build up: (straight eighths)

Eb|-----------------------------|
Bb|11-----13-----15-----17-----o|
Gb|14-x8--14-x8--14-x8--17-x8---|
Db|-----------------------------|
Ab|----------------------------o|
Db|-----------------------------|

"Stand your ground..."
(I'll write in the chord once, and you can work out the rhythm, 
it's too hard and time consuming to tab. I will tab the palm muted chords fully, but not the rhythm)

Eb|---|----|---|---|---|----|------------|-------------|
Bb|---|----|---|---|---|----|------------|------------o|
Gb|---|----|---|---|---|----|------------|-------------|
Db|-8-|-10-|-5-|-7-|-8-|-10-|0-0-0-0-0-0-|0-0-0-0-0-0--|
Ab|-8-|-10-|-5-|-7-|-8-|-10-|0-0-0-0-0-0-|0-0-0-0-0-0-o|
Db|-8-|-10-|-5-|-7-|-8-|-10-|0-0-0-0-0-0-|0-0-0-0-0-0--|
                             . . . . . .  . . . . . .


"We're not hiding..."


Eb|--|-----|        |-|
Bb|--|----o|        |-|
Gb|--|-----|        |-|
Db|8-|-10--|x 3 then|0|
Ab|8-|-10-o|        |0|
Db|8-|-10--|        |0|

"I'm in the zone!"

Eb|--------------|-----------------|--------------|------------------|
Bb|--------11-11-|-----------------|--------11-11-|-----------------o|
Gb|--------14-14-|-----------------|--------14-14-|------------------|
Db|0-0-0-0-------|0-0-0-0-0-0------|0-0-0-0-------|0-0-0-0-0-0-------|
Ab|0-0-0-0-------|0-0-0-0-0-0------|0-0-0-0-------|0-0-0-0-0-0------o|
Db|0-0-0-0-------|0-0-0-0-0-0-0/5b-|0-0-0-0-------|0-0-0-0-0-0-0/5b--|
   . . . .        . . . . . .       . . . .        . . . . . .

"Alright!" - as above, but without the high 'clashy' chords.

"And still we will be here..."


Eb|--|--|----------------|-----------------|
Bb|--|--|----11-11-11-11-|----11-11-11-11--|
Gb|--|--|----14-14-14-14-|----14-14-14-14--|
Db|0-|0-|0-0-------------|0-0--------------|
Ab|0-|0-|0-0-------------|0-0--------------|
Db|0-|0-|0-0-------------|0-0--------------|
         . .              . . 

Repeat the last 2 bars as necessary until the last bar, which looks like this:


Eb|-----------------|
Bb|----11-11-11-15--|
Gb|----14-14-14-14--|
Db|0-0--------------|
Ab|0-0--------------|
Db|0-0--------------|
   . . 

So that's it, hope you enjoy playing it.
Any questions or comments, or perhaps corrections, email them to me at marshall_409@hotmail.com



Related for Enter Shikari tab