Song name
# A B C D E F G H I J K L M N O P Q R S T U V W X Y Z

Enter Shikari - Anything Can Happen In The Next Half Hour tab

Artist: Enter Shikari
Song: Anything Can Happen In The Next Half Hour
Album: Take To The Skies
Tabbed by: FeebleGrind106

Tuning:(Db Ab Db Gb Bb Eb)

Well this is my first tab, so go easy!

.=Palm Mute
~=Let Ring
L,R=Tapping with Left and Right Hand
/=Slide Up

Intro:

(Keys) then,

  "Everything seems to..."
Eb|---------------------------------------------------|
Bb|------6------6------6-----6-----6---6------6-------|
Gb|------7------7------7-----7-----7---7------7-------|
Db|------7------7------7-----7-----7---7------7-------|(x2)
Ab|------5------5------5-----5-----5---5------5-------|
Db|------0------0------0-----0-----0---0------0-------|
         .      .      .     .     .   .      .

Eb|---------------------------------------------------|
Bb|---------------------------------------------------|
Gb|-----10-----10-----10----10----10--10-----10-------|
Db|------8------8------8-----8-----8---8------8-------|(x2)
Ab|------8------8------8-----8-----8---8------8-------|
Db|------8------8------8-----8-----8---8------8-------|
         .      .      .     .     .   .      .   

Eb|---------------------------------------------------|
Bb|---------------------------------------------------|
Gb|------5------5------5-----5-----5---5------5-------|
Db|------3------3------3-----3-----3---3------3-------|(x2)
Ab|------3------3------3-----3-----3---3------3-------|
Db|------3------3------3-----3-----3---3------3-------|
         .      .      .     .     .   .      .

Eb|---------------------------------------------------|
Bb|---------------------------------------------------|
Gb|------7------7------7-----7-----7---7------7-------|
Db|------5------5------5-----5-----5---5------5-------|(x2)
Ab|------5------5------5-----5-----5---5------5-------|
Db|------5------5------5-----5-----5---5------5-------|
         .      .      .     .     .   .      .

Verse:

  "...Knew..."
Eb|---------------------------------------------------|
Bb|---------------------------------------------------|
Gb|-----------------------------------7h10------------|
Db|-0000--0000---0000----0000------0h7----------------|
Ab|-0000--0000---0000----0000-------------------------|
Db|-0000--0000---0000----0000-------------------------|
    ....  ....   ....    ....

Eb|---------------------------------------------------|
Bb|---------------------------------------------------|
Gb|-----------------------------------7h10------------|
Db|-8888--8888---8888----8888------0h7----------------|
Ab|-8888--8888---8888----8888-------------------------|
Db|-8888--8888---8888----8888-------------------------|
    ....  ....   ....    ....

Eb|---------------------------------------------------|
Bb|---------------------------------------------------|
Gb|-----------------------------------7h10------------|
Db|-3333--3333---3333----3333------0h7----------------|
Ab|-3333--3333---3333----3333-------------------------|
Db|-3333--3333---3333----3333-------------------------|
    ....  ....   ....    ....

Eb|---------------------------------------------------|
Bb|---------------------------------------------------|
Gb|---------------------------------------------------|
Db|-5555--5555---5555----5555-------------------------|
Ab|-5555--5555---5555----5555-------------------------|
Db|-5555--5555---5555----5555-------------------------|
    ....  ....   ....    ....

Eb|---------------------------------------------------|
Bb|---------------------------------------------------|
Gb|---------------------------------------------------|
Db|-0000~-0000~--0000~---0000~~-----------------------|
Ab|-0000~-0000~--0000~---0000~~-----------------------|
Db|-0000~-0000~--0000~---0000~~-----------------------|

Pre-Chorus:

Eb|---------------------------------------------------|
Bb|---------------------------------------------------|
Gb|---------------------------------------------------|
Db|-0000--0000---0000----0000-------------------------|(x2)
Ab|-0000--0000---0000----0000-------------------------|
Db|-0000--0000---0000----0000-------------------------|
    ....  ....   ....    ....

Eb|-------------------------3--3--3--3--5--5--5--5----|
Bb|-3--3--3--3--5--5--5--5--5--5--5--5--3--3--3--3----|
Gb|-2--2--2--2--2--2--2--2--2--2--2--2--2--2--2--2----|
Db|-0--0--0--0--0--0--0--0--0--0--0--0--0--0--0--0----|(x3)
Ab|---------------------------------------------------|
Db|---------------------------------------------------|

Chorus:

  "The curtain goes down..."
Eb|---------------------------------------------------|
Bb|---------------------------------------------------|
Gb|10-10-10-10-10-10-10-10-10-10-10-10-10-10-10-10-10-|---|
Db|-8--8--8--8--8--8--8--8--8--8--8--8--8--8--8--8--8-|   |
Ab|-8--8--8--8--8--8--8--8--8--8--8--8--8--8--8--8--8-|   | 
Db|-8--8--8--8--8--8--8--8--8--8--8--8--8--8--8--8--8-|   |
                                                          |-(x3)
Eb|---------------------------------------------------|   |
Bb|---------------------------------------------------|   |
Gb|10-10-10-10-10-10-10-10-10-10-10-10-10-10-10-10-10-|   |
Db|-7--7--7--7--7--7--7--7--7--7--7--7--7--7--7--7--7-|---|
Ab|-7--7--7--7--7--7--7--7--7--7--7--7--7--7--7--7--7-|
Db|-7--7--7--7--7--7--7--7--7--7--7--7--7--7--7--7--7-|

Eb|---------------------------------------------------|
Bb|---------------------------------------------------|
Gb|10-10-10-10-10-10-10-10-10-10-10-10-10-10-10-10-10-|
Db|-8--8--8--8--8--8--8--8--8--8--8--8--8--8--8--8--8-|
Ab|-8--8--8--8--8--8--8--8--8--8--8--8--8--8--8--8--8-|
Db|-8--8--8--8--8--8--8--8--8--8--8--8--8--8--8--8--8-|

Eb|---------------------------------------------------|
Bb|---------------------------------------------------|
Gb|10--10--10--10--10--10--10--10---------------------|
Db|-7---7---7---7---7---7---7---7----7----7----7------|
Ab|-7---7---7---7---7---7---7---7----7----7----7------|
Db|-7---7---7---7---7---7---7---7----7----7----7------|

Tapping Riff:

      L  R  R   L  R   L  R   L  R  R   L  R   L  R 
Eb|---------------------------------------------------|
Bb|---------------------------------------------------|
Gb|---------------------------------------------------|
Db|-0-7-12/15-0-7-14-0-7-12-0-7-15/19-0-7-17-0-7-15-0-|
Ab|---------------------------------------------------|
Db|---------------------------------------------------|

      L  R   L  R
Eb|---------------------------------------------------|
Bb|-----------------6-6-------------------------------|
Gb|-----------------7-7-------------------------------|
Db|-0-7-14-0-7-12-0-7-7-------------------------------|
Ab|-----------------5-5-------------------------------|
Db|-----------------0-0-------------------------------|

Intro:

  "Everything seems to..."
Eb|---------------------------------------------------|
Bb|------6------6------6-----6-----6---6------6-------|
Gb|------7------7------7-----7-----7---7------7-------|
Db|------7------7------7-----7-----7---7------7-------|(x2)
Ab|------5------5------5-----5-----5---5------5-------|
Db|------0------0------0-----0-----0---0------0-------|
         .      .      .     .     .   .      .

Eb|---------------------------------------------------|
Bb|---------------------------------------------------|
Gb|-----10-----10-----10----10----10--10-----10-------|
Db|------8------8------8-----8-----8---8------8-------|(x2)
Ab|------8------8------8-----8-----8---8------8-------|
Db|------8------8------8-----8-----8---8------8-------|
         .      .      .     .     .   .      .   

Eb|---------------------------------------------------|
Bb|---------------------------------------------------|
Gb|------5------5------5-----5-----5---5------5-------|
Db|------3------3------3-----3-----3---3------3-------|(x2)
Ab|------3------3------3-----3-----3---3------3-------|
Db|------3------3------3-----3-----3---3------3-------|
         .      .      .     .     .   .      .

Eb|---------------------------------------------------|
Bb|---------------------------------------------------|
Gb|------7------7------7-----7-----7---7------7-------|
Db|------5------5------5-----5-----5---5------5-------|(x2)
Ab|------5------5------5-----5-----5---5------5-------|
Db|------5------5------5-----5-----5---5------5-------|
         .      .      .     .     .   .      .

  "...his stare..."
Eb|---------------------------------------------------|
Bb|---------------------------------------------------|
Gb|-----------------------------------7h10------------|
Db|-0000--0000---0000----0000------0h7----------------|
Ab|-0000--0000---0000----0000-------------------------|
Db|-0000--0000---0000----0000-------------------------|
    ....  ....   ....    ....

Eb|---------------------------------------------------|
Bb|---------------------------------------------------|
Gb|-----------------------------------7h10------------|
Db|-8888--8888---8888----8888------0h7----------------|
Ab|-8888--8888---8888----8888-------------------------|
Db|-8888--8888---8888----8888-------------------------|
    ....  ....   ....    ....

Eb|---------------------------------------------------|
Bb|---------------------------------------------------|
Gb|-----------------------------------7h10------------|
Db|-3333--3333---3333----3333------0h7----------------|
Ab|-3333--3333---3333----3333-------------------------|
Db|-3333--3333---3333----3333-------------------------|
    ....  ....   ....    ....

Eb|---------------------------------------------------|
Bb|---------------------------------------------------|
Gb|---------------------------------------------------|
Db|-5555--5555---5555----5555-------------------------|
Ab|-5555--5555---5555----5555-------------------------|
Db|-5555--5555---5555----5555-------------------------|
    ....  ....   ....    ....

Interlude:(Clean)

Eb|---------------------------------------------------|
Bb|---------13~~----11~10~----------------------------|
Gb|-----10~~-----------------9~---10~---9~---10~---9~-|
Db|-12~~--------12~~------12~--12~---12~--12~---12~---|
Ab|---------------------------------------------------|
Db|---------------------------------------------------|

Eb|---------------------------------------------------|
Bb|---------11~~----10~-------------------------------|
Gb|-----10~~-----------12~---9~---10~---9~---10~---9~-|
Db|-10~~--------10~~------10~--10~---10~--10~---10~---|
Ab|---------------------------------------------------|
Db|---------------------------------------------------|

Eb|---------------------------------------------------|
Bb|--------10~~---8~----------------------------------|
Gb|----10~~---------10~--9~--10~--9~--10~--9~---------|
Db|-8~~--------8~~-----8~--8~---8~--8~---8~-----------|(x2)
Ab|---------------------------------------------------|
Db|---------------------------------------------------|

  "We've had this..."
Eb|---------------------------------------------------|
Bb|---------13~~----11~10~----------------------------|
Gb|-----10~~-----------------9~---10~---9~---10~---9~-|
Db|-12~~--------12~~------12~--12~---12~--12~---12~---|
Ab|---------------------------------------------------|
Db|---------------------------------------------------|

Eb|---------------------------------------------------|
Bb|---------11~~----10~-------------------------------|
Gb|-----10~~-----------12~---9~---10~---9~---10~---9~-|
Db|-10~~--------10~~------10~--10~---10~--10~---10~---|
Ab|---------------------------------------------------|
Db|---------------------------------------------------|

Eb|---------------------------------------------------|
Bb|--------10-----8-----------------------------------|
Gb|----10-----------10---9---10---9---10---9----------|
Db|-8----------8-------8---8----8---8----8------------|(x2)
Ab|---------------------------------------------------|
Db|---------------------------------------------------|
    .   .   .  .  .  . . . .  . . . .  . . .

Again:"We've had this..."

Eb|---------------------------------------------------|
Bb|---------13~~----11~10~----------------------------|
Gb|-----10~~-----------------9~---10~---9~---10~---9~-|
Db|-12~~--------12~~------12~--12~---12~--12~---12~---|
Ab|---------------------------------------------------|
Db|---------------------------------------------------|

Eb|---------------------------------------------------|
Bb|---------11~~----10~-------------------------------|
Gb|-----10~~-----------12~---9~---10~---9~---10~---9~-|
Db|-10~~--------10~~------10~--10~---10~--10~---10~---|
Ab|---------------------------------------------------|
Db|---------------------------------------------------|

Eb|---------------------------------------------------|
Bb|--------10-----8-----------------------------------|
Gb|----10-----------10---9---10---9---10---9----------|
Db|-8----------8-------8---8----8---8----8------------|(x2)
Ab|---------------------------------------------------|
Db|---------------------------------------------------|
    .   .   .  .  .  . . . .  . . . .  . . .

Eb|-------------------------3--3--3--3--5--5--5--5----|
Bb|-3--3--3--3--5--5--5--5--5--5--5--5--3--3--3--3----|
Gb|-2--2--2--2--2--2--2--2--2--2--2--2--2--2--2--2----|
Db|-0--0--0--0--0--0--0--0--0--0--0--0--0--0--0--0----|
Ab|---------------------------------------------------|
Db|---------------------------------------------------|

Chorus:

Eb|---------------------------------------------------|
Bb|---------------------------------------------------|
Gb|10-10-10-10-10-10-10-10-10-10-10-10-10-10-10-10-10-|---|
Db|-8--8--8--8--8--8--8--8--8--8--8--8--8--8--8--8--8-|   |
Ab|-8--8--8--8--8--8--8--8--8--8--8--8--8--8--8--8--8-|   | 
Db|-8--8--8--8--8--8--8--8--8--8--8--8--8--8--8--8--8-|   |
                                                          |-(x4)
Eb|---------------------------------------------------|   |
Bb|---------------------------------------------------|   |
Gb|10-10-10-10-10-10-10-10-10-10-10-10-10-10-10-10-10-|   |
Db|-7--7--7--7--7--7--7--7--7--7--7--7--7--7--7--7--7-|---|
Ab|-7--7--7--7--7--7--7--7--7--7--7--7--7--7--7--7--7-|
Db|-7--7--7--7--7--7--7--7--7--7--7--7--7--7--7--7--7-|

Outro:

  "Who remains when the curtain falls..."
Eb|---------------------------------------------------|
Bb|---------------------------------------------------|
Gb|---------------------------------------------------|
Db|-888--8--888--0-0~~--8--8--888--8--8--8------------|
Ab|-888--8--888--0-0~~--8--8--888--8--8--8------------|
Db|-888--8--888--0-0~~--8--8--888--8--8--8------------|

Eb|---------------------------------------------------|
Bb|---------------------------------------------------|
Gb|---------------------------------------------------|
Db|10-10-10-10-10-10-10-10-10-10-10-10-10-10-10-10-10-|
Ab|10-10-10-10-10-10-10-10-10-10-10-10-10-10-10-10-10-|
Db|10-10-10-10-10-10-10-10-10-10-10-10-10-10-10-10-10-|

Eb|---------------------------------------------------|
Bb|---------------------------------------------------|
Gb|---------------------------------------------------|
Db|-888--8--888--0-0~~--8--8--888--8--8--8------------|
Ab|-888--8--888--0-0~~--8--8--888--8--8--8------------|
Db|-888--8--888--0-0~~--8--8--888--8--8--8------------|

Eb|---------------------------------------------------|
Bb|---------------------------------------------------|
Gb|---------------------------------------------------|
Db|10--10--10--10--10--10--10--10----7----7----7------|
Ab|10--10--10--10--10--10--10--10----7----7----7------|
Db|10--10--10--10--10--10--10--10----7----7----7------|

Ending: Tapping Riff

      L  R  R   L  R   L  R   L  R  R   L  R   L  R 
Eb|---------------------------------------------------|
Bb|---------------------------------------------------|
Gb|---------------------------------------------------|
Db|-0-7-12/15-0-7-14-0-7-12-0-7-15/19-0-7-17-0-7-15-0-|
Ab|---------------------------------------------------|
Db|---------------------------------------------------|

      L  R   L  R
Eb|---------------------------------------------------|
Bb|---------------------------------------------------|
Gb|---------------------------------------------------|
Db|-0-7-14-0-7-12-------------------------------------|
Ab|---------------------------------------------------|
Db|---------------------------------------------------|

      L  R  R   L  R   L  R   L  R  R   L  R   L  R 
Eb|---------------------------------------------------|
Bb|---------------------------------------------------|
Gb|---------------------------------------------------|
Db|-0-7-12/15-0-7-14-0-7-12-0-7-15/19-0-7-17-0-7-15-0-|
Ab|---------------------------------------------------|
Db|---------------------------------------------------|

      L  R   
Eb|---------------------------------------------------|
Bb|----------6-6--------------------------------------|
Gb|----------7-7--------------------------------------|
Db|-0-7-14-0-7-7--------------------------------------|
Ab|----------5-5--------------------------------------|
Db|----------0-0--------------------------------------|


This is one of Enter Shikari's best songs, I hoped you
liked it. I'm pretty sure this is 90-100% accurate and please rate!!


Lyrics:

His eyes are locked on her
Her eyes are fixed elsewhere
He's confident, but he's not aware
She doesn't care

Their only connection 
is the silence they both grasp
He's lost control
But she's not aware, of his stare

Everything seems to intimidate him, 
With the strobe lights flashing, her body's jolting
But cracking, as his eyes, 
Split in two, if only she knew
If only she knew
If only
If only she knew

The curtain goes down on him again
The curtain goes down on him again

Everything seems to be closing in on her
It feels just like she is being hunted
But it's alright, it's all good
She's not aware, of his stare

We've had this date from the beginning
We've had this date from the beginning

The curtain goes down on him again
The curtain goes down on him again

Who remains when the curtain falls?
Who remains when the curtain goes down?
Who remains when the curtain falls?
Who remains when the curtain goes down?
Tap to rate this tab
# A B C D E F G H I J K L M N O P Q R S T U V W X Y Z