Song name
# A B C D E F G H I J K L M N O P Q R S T U V W X Y Z

Enter Shikari - No Sssweat tab

Help us improve GuitareTab! Take a short survey!
I noticed no one tabbed "No Sssweat" out properly yet. So I managed to scrap my 
interpetation fo the song together by ear and using material from live shows.
This is "No Sssweat" as featured on the "Take To The Skies" debut album of Enter Shikari.


"Where's your respect!(?)"
D#|---------------------------|
A#|---------------------------|
F#|---------------------------|
C#|-12-------8--------11------|8x
G#|-12-------8--------11------|
C#|-12-------8--------11------|

Obviously these cords are strum more then once, figure out for urself.
They are strum very fast in an constant tempo after each other.

D#|---------------------|
A#|---------------------|
F#|---------------------|
C#|--12~-------12~------|
G#|--12~-------12~------|
C#|--12~-------12~------|
This one is played once, before the first verse, when the song calms down.

"Not even salt can make your hands taste good"
D#|------------------------------------------------------------------------------|
A#|------------------------------------------------------------------------------|
F#|-14-14-14-14-14-14-14-14-9-9-9-9-9-9-9-9-1010101010101010101010101010101012---|
C#|-12-12-12-12-12-12-12-12-7-7-7-7-7-7-7-7-8-8-8-8-8-8-8-8-8-8-8-8-8-8-8-8-10---|
G#|-12-12-12-12-12-12-12-12-7-7-7-7-7-7-7-7-8-8-8-8-8-8-8-8-8-8-8-8-8-8-8-8-10---|
C#|-12-12-12-12-12-12-12-12-7-7-7-7-7-7-7-7-8-8-8-8-8-8-8-8-8-8-8-8-8-8-8-8-10---|

In between he slides from the 8 and the 7 down to 0 on the middle(high) C# string. 
He uses a pedal for this part (atleast thats how I get the same sound).

"You do this every fucking time!!"
D#|----------------------------------|
A#|----------------------------------|
F#|------------------------10--12----|
C#|------------------------8---10----|
G#|-0-0------0-0-0-------0-8-0-10----|
C#|-0-0------0-0-0-------0-8-0-10----|

D#|----------------------------------|
A#|----------------------------------|
F#|------------------------12---10---|
C#|------------------------10---8----|
G#|-0-0------0-0-0-------0-10-0-8----|
C#|-0-0------0-0-0-------0-10-0-8----|
repeat both lines after each other.

"Blood fills your palms"
D#|-------------------|
A#|-------------------|
F#|--------7-7-666>7--|2x
C#|--------x-x-xxx-x--|
G#|-8-8----5-5-333>5--|
C#|-8-8---------------|

D#|-------------------|
A#|-------------------|
F#|--------7-7-666>7--|2x
C#|--------x-x-xxx-x--|
G#|-0-0----5-5-333>5--|
C#|-0-0---------------|

D#|----------------------------------|
A#|----------------------------------|
F#|-9-9-9---9-9-9---101010--101010---|
C#|-7-7-7---7-7-7---8-8-8---8-8-8----|
G#|-7-7-7---7-7-7---8-8-8---8-8-8----|
C#|-7-7-7---7-7-7---8-8-8---8-8-8----|

repeat that scheme twice. Then start over at the beginning of the tab again. 
The first 2 schemes are repeated again in this part.

Enjoy!
Related for No Sssweat tab