Song name
# A B C D E F G H I J K L M N O P Q R S T U V W X Y Z

Enter Shikari - Stand You Ground This Is Ancient Land tab

This Is The Correct Version Of The First Track On Take To The Skies! All Other TAB's At 
Moment For This Are Tabbed In Standard Tuning When All The Album Is In C# So Basically 
Is The Good Shit

Tuning: Drop C#/ Db

Dancy Beginning Going "Aaaaaah Aaaaaaah Aaaaaaah Aaaaaaaah"


Put On Heavy Reverb And Some Delay

[00:27 - 00:32]
D#|--13-12-13-12-13-12-13-12-13-12-13-12-13-12------------------------------|
A#|--------------------------------------------10/0-------------------------|
F#|-------------------------------------------------------------------------|
C#|-------------------------------------------------------------------------|
G#|-------------------------------------------------------------------------|
C#|-------------------------------------------------------------------------|

[00:34 - 00:40]
  |--13-12-13-12-13-12-13-12-13-12-13-12-13-12-15~~~~~~~10-18~~17~~------|
  |----------------------------------------------------------------------|
  |----------------------------------------------------------------------|
  |----------------------------------------------------------------------|
  |----------------------------------------------------------------------|
  |----------------------------------------------------------------------|

[00:41 - 00:45]
  |--13-12-13-12-13-12-13-12-13-12-13-12-13-12------------------------------|
  |--------------------------------------------10/0-------------------------|
  |-------------------------------------------------------------------------|
  |-------------------------------------------------------------------------|
  |-------------------------------------------------------------------------|
  |-------------------------------------------------------------------------|

[00:47 - 1:00]
  |--13-12-13-12-13-12-13-12-13-12-13-12-13-12-15~~~~~~~~~10~~~17~~~15~~~|
  |----------------------------------------------------------------------|
  |----------------------------------------------------------------------|
  |----------------------------------------------------------------------|
  |----------------------------------------------------------------------|
  |----------------------------------------------------------------------|

/ = Slide down
~ = Sustain


There You Have It. Go Easy This Is My First TAB.
If You Have Any Suggestions Then Please E-Mail To: hatethe_world@hotmail.com
Thanks Dudes And Dudettes! =)

P.S I Am Hoping To TAB The Whole Album Soon I'm Working On "Today Wont GO Down In
And "Return To Energizer!" So If You Have Any Ideas Towards Those Songs Then E-Mail Me Using
Above Address.
Much Thanks!


Also My Other TAB Of This Song Had A Stupid Error In It. It Was Late When I Wrote It. 
Other TAB Says It's 9/0 In The First Part Buuuut It's Actually (As I've Corrected) 10/0
Tap to rate this tab
# A B C D E F G H I J K L M N O P Q R S T U V W X Y Z