Guitaretab - guitar tabs
Song name
# A B C D E F G H I J K L M N O P Q R S T U V W X Y Z

Enter Shikari - Kickin Back On The Surface Of Your Cheek tab

This is not my work, The real work is done by this bloke

http://www.youtube.com/watch?v=M9H20MFr3GY

SD - Slide Down
BU - Bend up
BD - Bend Down
B  - Bend
T  - Tapping

Order 

Intro x 2
Verse x 2
Chorus x 2
Intro x 2
Chorus x 2
After Chorus x 1
Pre solo x 1
Solo 1 x 1
Pre Solo x 1
Solo 2 x 1
Pre Solo x 1
Solo 3 x 1
Afer Solo x 1
Part 2 till song ends.

Hope you enjoy it:)

Intro

E|-----------------------------------------------------------------------|
B|------------------------------5-----------------------------5----------|
G|-------------------------4-----------------------------4---------------|
D|-----------12-------------------------------12-------------------------| 
A|----12--------------------------------12-------------------------------|
E|------------------12-----------------------------12--------------------|

E|-----------------------------------------------------------------------|
B|-------8----7----5----12---10-----14----12----10----17----14-----------|
G|-------x----x----x-----x----x------x-----x-----x-----x-----x-----------|
D|-------10---9----7----14---12-----12----10-----8----15----16-----------| 
A|-----------------------------------------------------------------------|
E|-----------------------------------------------------------------------|

Verse/Chorus (Chorus is same as verse but different rhythm)

E|-----------------------------------------------------------------------|
B|-----------------------------------------------------------------------|
G|----7------------------------------------------------------------------|
D|----7----7----3----5---------------------------------------------------|
A|----5----7----3----5---------------------------------------------------|
E|---------7----3----5---------------------------------------------------|

Pre Solo

E|-----------------------------------------------------------------------|
B|-----------------------------------------------------------------------|
G|-----------------------------------------------------------------------|
D|----0--------12---------0--12-------------10---------------------------|
A|----0---x3---12-SD------0--12-------SD----10----x4---------------------|
E|----0--------12---------0--12-------------10---------------------------|
[ Tab from: http://www.guitaretab.com/e/enter-shikari/91069.html ]
Solo 1

E|-----------------------------------------------------------------------|
B|-----------------------------------------------------------------------|
G|----10--11--10-----x2--11-11-11bu12------------------------------------|
D|---------------11------------------------------------------------------|
A|-----------------------------------------------------------------------|
E|-----------------------------------------------------------------------|

Solo 2

E|-----------------------------------------------------------------------|
B|-----------------------------------------------------------------------|
G|-----T-----------T----------T------------------------------------------|
D|----15p10h11-x3-16p10h11-x3-18p10h11x2--------------------------------|
A|-----------------------------------------------------------------------|
E|-----------------------------------------------------------------------|

Solo 3

E|-----------------------------------------------------------------------|
B|----10--11--10--11-----------------------------------------------------|
G|---------------------11-x2-----1010bu11-------------------------------|
D|-----------------------------------------------------------------------|
A|-----------------------------------------------------------------------|
E|-----------------------------------------------------------------------|

After Solo

E|-----------------------------------------------------------------------|
B|-----------------------------------------------------------------------|
G|-----------------------------------------------------------------------|
D|---12------------------2-----------------------------------------------|
A|---12-----slide down---2---pick slide down-----------------------------|
E|---12------------------2-----------------------------------------------|

Part 2

E|------------------------------10------------------------5--------5-----|
B|------------------------------------------------------------7--------7-|
G|-----------------------------------------------------------------------|
D|---0--------------9b-----9-----------11-----------5--------------------|
A|---0---------------------9------------------------5--------------------|
E|---0---12b-10b-----------9------------------------5--------------------|

Related for Kickin Back On The Surface Of Your Cheek tab