Song name
# A B C D E F G H I J K L M N O P Q R S T U V W X Y Z

Enter Shikari - Acid Nation tab

Acid Nation

Drop C# Tuning (C# A# C# F# A# D#)

Intro


2-0-5-----2-0-5---2-0-5-------------------------------------------------------------|
3-3-3-----3-3-3---3-3-3-------------------------------------------------------------|
2-2-2-----2-2-2---2-2-2-------------------------------------------------------------|
------------------------------------------------------------------------------------|
------------------------------------------------------------------------------------|
------------------------------------------------------------------------------------|

Verse

2-2-2-2-2-2-2-2-0-0-0-0-0-0-0-0-5-5-5-5-5-5-5-5-5-5-5-5-----------------------------|
3-3-3-3-3-3-3-3-3-3-3-3-3-3-3-3-3-3-3-3-3-3-3-3-3-3-3-3-----------------------------|
2-2-2-2-2-2-2-2-2-2-2-2-2-2-2-2-2-2-2-2-2-2-2-2-2-2-2-2-----------------------------|
------------------------------------------------------------------------------------|
------------------------------------------------------------------------------------|
------------------------------------------------------------------------------------|
PM......................................................

Chorus

------------------------------------------------------------------------------------|
------------------------------------------------------------------------------------|
-----------------------------------7-7-7-7-7-7-7-7----------------------------------|
-9-9-9-9-9-9-9-9--7-7-7-7-7-7-7-7--7-7-7-7-7-7-7-7--5-5-5-5-5-5-5-5-----------------|
-9-9-9-9-9-9-9-9--7-7-7-7-7-7-7-7--5-5-5-5-5-5-5-5--5-5-5-5-5-5-5-5-----------------|
-9-9-9-9-9-9-9-9--7-7-7-7-7-7-7-7-------------------5-5-5-5-5-5-5-5-----------------|

Bridge 1

------------------------------------------------------------------------------------|
------------------------------------------------------------------------------------|
------------------------------------------------------------------------------------|
----------------------------------------------------------------2*------------------|
------------------------------------------------------------------------------------|
-0-2-4-0-5-4-2-4-0-2-4-0-5-4-2-4-0-2-4-0-5-4-2-4-0-2-4-0-5-4-2-4--------------------|

FEEL THE RAYS. BEAT DOWN!

------------------------------------------------------------------------------------|
------------------------------------------------------------------------------------|
------------------------------------------------------------------------------------|
-0-2-4-0-5-4-2-4--------------------------------------------------------------------|
-0-2-4-0-5-4-2-4--------------------------------------------------------------------|
-0-2-4-0-5-4-2-4--8X----------------------------------------------------------------|
PM..............

NEXT TIME YOU OPEN YOUR EYES

------------------------------------------------------------------------------------|
------------------------------------------------------------------------------------|
-----------------------------------7-7-7-7-7-7-7-7----------------------------------|
-9-9-9-9-9-9-9-9--7-7-7-7-7-7-7-7--7-7-7-7-7-7-7-7--5-5-5-5-5-5-5-5-----------------|
-9-9-9-9-9-9-9-9--7-7-7-7-7-7-7-7--5-5-5-5-5-5-5-5--5-5-5-5-5-5-5-5-----------------|
-9-9-9-9-9-9-9-9--7-7-7-7-7-7-7-7-------------------5-5-5-5-5-5-5-5-----------------|

------------------------------------------------------------------------------------|
------------------------------------------------------------------------------------|
-----------------------------------7-7-7-7-7-7-7-7----------------------------------|
-9-9-9-9-9-9-9-9--7-7-7-7-7-7-7-7--7-7-7-7-7-7-7-7--5-5-5-5-5-5-5-5-----------------|
-9-9-9-9-9-9-9-9--7-7-7-7-7-7-7-7--5-5-5-5-5-5-5-5--5-5-5-5-5-5-5-5-----------------|
-9-9-9-9-9-9-9-9--7-7-7-7-7-7-7-7-------------------5-5-5-5-5-5-5-5-----------------|

chorus

------------------------------------------------------------------------------------|
------------------------------------------------------------------------------------|
-----------------------------------7-7-7-7-7-7-7-7----------------------------------|
-9-9-9-9-9-9-9-9--7-7-7-7-7-7-7-7--7-7-7-7-7-7-7-7--5-5-5-5-5-5-5-5-----------------|
-9-9-9-9-9-9-9-9--7-7-7-7-7-7-7-7--5-5-5-5-5-5-5-5--5-5-5-5-5-5-5-5-----------------|
-9-9-9-9-9-9-9-9--7-7-7-7-7-7-7-7-------------------5-5-5-5-5-5-5-5-----------------|

Bridge 1 again

------------------------------------------------------------------------------------|
------------------------------------------------------------------------------------|
------------------------------------------------------------------------------------|
----------------------------------------------------------------2*------------------|
------------------------------------------------------------------------------------|
-0-2-4-0-5-4-2-4-0-2-4-0-5-4-2-4-0-2-4-0-5-4-2-4-0-2-4-0-5-4-2-4--------------------|


FEEL THE RAYS. BEAT DOWN!

------------------------------------------------------------------------------------|
------------------------------------------------------------------------------------|
------------------------------------------------------------------------------------|
-0-2-4-0-5-4-2-4--------------------------------------------------------------------|
-0-2-4-0-5-4-2-4--------------------------------------------------------------------|
-0-2-4-0-5-4-2-4--8X----------------------------------------------------------------|
PM..............

AND TO ANYONE WHO CARES, THE SUN IS OUT!

------------------------------------------------------------------------------------|
------------------------------------------------------------------------------------|
------------------------------------------------------------------------------------|
------------------------------------------------------------------------------------|
0-0-2-4-0-7-4-2-4-------------------------------------------------------------------|
0-0-2-4-0-7-4-2-4-2X----------------------------------------------------------------|
PM...............
------------------------------------------------------------------------------------|
------------------------------------------------------------------------------------|
--------------------------11------7*------------------------------------------------|
0-0--0-0--0-0-0---0-0-7/9---9-7/5---------------------------------------------------|
0-0--0-0--0-0-0---0-0---------------------------------------------------------------|
0-0--0-0--0-0-0---0-0---------------4X----------------------------------------------|
PM...................

Outro

------------------------------------------------------------------------------------|
------------------------------------------------------------------------------------|
------------------------------------------------------------------------------------|
-0-0-12/0-0-0-4---------------------------------------------------------------------|
-0-0-12/0-0-0-----------------------------------------------------------------------|
-0-0-12/0-0-0-----3x----------------------------------------------------------------|
Tap to rate this tab
# A B C D E F G H I J K L M N O P Q R S T U V W X Y Z