Song name
# A B C D E F G H I J K L M N O P Q R S T U V W X Y Z

Enter Shikari - Today Wont Go Down In History tab

This is my first tab so sorry for any stupid mistakes...
I think it's accurate and it's easy as hell so enjoy.
  
  
eb|-------------------------------------------------------|
Bb|-------------------------------------------------------|
Gb|------------------------------2-----------0---0---0----|
Db|----2/3-0-2-2/3-0---2/3-0-2-3---3/2-0-2-3---0---0------|
Ab|-------------------------------------------------------|
Db|--0---------------0------------------------------------|

eb|-------------------------------------------------------|
Bb|-------------------------------------------------------|
Gb|------------------------------2------------------------|
Db|----2/3-0-2-2/3-0---2/3-0-2-3---3-0-3/2-0-2-3----------|
Ab|-------------------------------------------------------|
Db|--0---------------0------------------------------------|

eb|-------------------------------------------------------|
Bb|------------------------------------------5------------|
Gb|------------------------------------5-------5----------|
Db|------7h8---8-----8p7---------7-------7-------7--------|
Ab|----5-----5---5-------5-----5---5-------5--------------|
Db|--5-------------5---------8-------8--------------------|

                 You might never meet me...
eb|-------------------------------------------------------|
Bb|------------------------------------5------------------|
Gb|------------------------------------5------------------|
Db|------7h8---8-----8p7---------7-----7------------------|
Ab|----5-----5---5-------5-----5---5---5------------------|
Db|--5-------------5---------8-------8-8------------------|

Play the intro again until you get to this part again, where there are 
a few small changes:
  
    "Into certain death..."
eb|-------------------------------------------------------|
Bb|------------------------------------------5------------|
Gb|------------------------------------5-------5----------|
Db|------7h8---8-----8p7---------7-------7-------7--------|
Ab|----5-----5---5-------5-----5---5-------5--------------|
Db|--5-------------5---------8-------8--------------------|

eb|-------------------------------------------------------|
Bb|-------------------------------------------------------|
Gb|------------------------------------5------------------|
Db|------7h8---8-----8p7---------7-------7---7---7--------|
Ab|----5-----5---5-------5-----5---5-------5---5----------|
Db|--5-------------5---------8-------8--------------------|

eb|-------------------------------------------------------|
Bb|-----------------------------------------5-------------|
Gb|-----------------------------------5-------5-----------|
Db|------7h8---8-----8p7--------7-------7-------7---------|
Ab|----5-----5---5-------5----5---5-------5---------------|
Db|--5-------------5--------8-------8---------------------|

eb|-------------------------------------------------------|
Bb|------------------------------------5------------------|
Gb|------------------------------------5------------------|
Db|------7h8---8-----8p7---------7-----7------------------|
Ab|----5-----5---5-------5-----5---5---5------------------|
Db|--5-------------5---------8-------8--------------------|

Then comes the "feel alive" part where you just play the same
notes:

eb|-------------------------------------------------------|
Bb|-------------------------------------------------------|
Gb|-------------------------------------------------------|
Db|-------------------------------------------------------|
Ab|-------------------------------------------------------|
Db|--0-0-0-0-0-0-0-0--------------------------------------|
                                                          (X8)

eb|-------------------------------------------------------|
Bb|-------------------------------------------------------|
Gb|-------------------------------------------------------|
Db|-------------------------------------------------------|
Ab|-------------------------------------------------------|
Db|--/12-12-12-12-12-12-12-12-----------------------------|
                                                          (X6)

eb|-------------------------------------------------------|
Bb|-------------------------------------------------------|
Gb|-------------------------------------------------------|
Db|-------------------------------------------------------|
Ab|-------------------------------------------------------|
Db|--/14-14-14-14-14-14-14-14-----------------------------|
                                                           (X2)

    "And I wanted you to know    I never ment for this"
eb|--8------------------8--------8-----------8------------|
Bb|--6------------------6--------6-----------6------------|
Gb|--x------------------x--------x-----------x------------|
Db|--7------------------7------- 7-----------7------------|
Ab|--5------------------7--------8-----------7------------|
Db|--0-(X16)--------------(X8)-----(X4)--------(X4)-------|
                                                          (X4)
    "...Today won't go down in history, so shut your eyes" 
eb|--8-----------------8----------8--------8--------------|
Bb|--6-----------------6----------6--------6--------------|
Gb|--x-----------------7----------7--------7--------------|
Db|--7-----------------5----------7--------8--------------|
Ab|--5----------------------------------------------------|
Db|--0-(X8)-------------(X8)-------(X8)-----(X8)----------|

eb|--5-----------5--5---5--5--17--5------------------------|
Bb|--6----6---5--6----8----6--18--6------------------------|
Gb|--7--7---7----7---------7------7------------------------|
Db|--7-----------7---------7------7------------------------|
Ab|--5-----------5---------5------5------------------------|
Db|--0-----------0---------0------0------------------------| 
                           

Tap to rate this tab
 
# A B C D E F G H I J K L M N O P Q R S T U V W X Y Z