Song name
# A B C D E F G H I J K L M N O P Q R S T U V W X Y Z

Enthroned - Deny The Holy Book Of Lies tab

Band- Enthroned
Song- Deny The Holy Book of Lies

tune normal

Riff:1
|-------------------------------------------------------------------|
|-------------------------------------------------------------------|
|-------------------------------------------------------------------|
|-------------------------------------------------------------------|
|---77777777888887777777788888-88888888999998888888899999-----------|
|---55555555555555555555555555-66666666666666666666666666-----------|

Riff:2                         Riff:3
|-----------------------------|-------------------------------------|
|-----------------------------|-------------------------------------|
|-----------------------------|-------------------------------------|
|------101010999--777-554455--|--555-777-10101099999----------------|
|--222-8-8-8-777--555-332233--|--333-555-8-8-8-77777----------------|
|--000------------------------|-------------------------------------|

Riff:4
|-------------------------------------------------------------------|
|-----h-p-----------------------------------------------------------|
|----4-5-4--7-5-4----h-p----h-p-------------------------------------|
|-----------------7-5-7-5--4-5-4------------------------------------|Gtr1
|--7----------------------------------------------------------------|
|-------------------------------------------------------------------|
|
|-------------------------------------------------------------------|
|-------------------------------------------------------------------|
|-------------------------------------------------------------------|
|--9--------------5--------5-4--------------------------------------|Gtr2
|--7--------------3--------3-2--------------------------------------|
|-------------------------------------------------------------------|

Riff:5
|-------------------------------------------------------------------|
|-------------------------------------------------------------------|
|-------------------------------------------------------------------|
|--999-121212-101010121212999-141414121212-11111112121211111-777----|
|--777-101010-----------------121212101010-9-9-9-1010109-9-9-555----|
|-------------------------------------------------------------------|

Riff:6                             1st            2nd
|---------------------------------|--------------|------------------|
|---------------------------------|--------------|------------------|
|---------------------------------|--------------|------------------|
|--999-101010-777-555-999-101010--|--777-101010--|--777-121212------|
|--777-8-8-8--555-333-777-8-8-8---|--555-8-8-8---|--555-101010------|
|---------------------------------|--------------|------------------|
Tap to rate this tab
# A B C D E F G H I J K L M N O P Q R S T U V W X Y Z