Song name
# A B C D E F G H I J K L M N O P Q R S T U V W X Y Z

Enthroned - Tales From A Blackened Horde tab

Band- Enthroned
Song- Tales From A Blackened Horde

Normal tuning (EADGBe)

Intro riff w/tremolo picking
e|------------------|
B|------------------|
G|------------------|
D|----8-7-----------|
A|-5------8-7----7--|
E|-------------8----|

Riff 2, tremolo picking (play 4x)
   1 2 3 4 1 2 3 4 1 2 3 4 1 2 3 4 1 2 3 4 1 2 3 4 1 2 3 4 1  2 3 4
e|----------------------------------------------------------------|
B|----------------------------------------------------------------|
G|----------------------------------------------------------------|
D|-7-------8-------7-----875-------7-------8-------7-----8710---8-|
A|-5-------6-------5-----653-------5-------6-------5-----65-8---6-|
E|----------------------------------------------------------------|
"Immersed in my hypnotic slumber
I wander through the paths of a cemetary
In an unhearlthly night, the high storms break the fire of sky
I hear the call as I go to a grave
the crypt of the demons is calling me, for the darkness ceremony, 
where the tales of ancient hordes will be recited and the blasphemy will be sung
Through the glaring lightning, my decomposed face,
and my skeletal body project a terrifying shadow on the burial ground"

	Riff 3, play 4x
e|---------------------|
B|---------------------|
G|---------------------|
D|----10-9-------------|
A|-7-------10-9-----9--|
E|---------------10----|

Riff 4, tremolo picking (w/keyboards)
   1   2   3   4   1   2   3   4   1   2   3   4   1    2    3   4
e|------------------------------------------------------------------|
B|------------------------------------------------------------------|
G|------------------------------------------------------------------|
D|-9-------10--9---7---------------9-------10--9---12--10---9---10--|
A|-7--------8--7---5---------------7--------8--7---10---8---7----8--|
E|------------------------------------------------------------------|
"O??hh master Satan !!!"

Riff 5, tremolo picking (w/keyboards)
e|-------------------------------------------------------------------------
B|-------------------------------------------------------------------------
G|-------------------------------------------------------------------------
D|-9-9-10-10-9-9-10-10-9-9-10-10-9-9-10-10-4-4-5-5-4-4-5-5-4-4-5-5-4-4-5-5-
A|-7-7--7--7-7-7--7--7-7-7--7--7-7-7--7--7-2-2-2-2-2-2-2-2-2-2-2-2-2-2-2-2-
E|-------------------------------------------------------------------------

  -------------------------------------------------------------------------|
  -------------------------------------------------------------------------|
  -------------------------------------------------------------------------|
  -9-9-10-10-9-9-10-10-9-9-10-10-9-9-10-10-7-7-8-8-7-7-8-8-7-7-8-8-7-7-8-8-|
  -7-7--7--7-7-7--7--7-7-7--7--7-7-7--7--7-5-5-5-5-5-5-5-5-5-5-5-5-5-5-5-5-|
  -------------------------------------------------------------------------|
"By your power, bless my body
dead for centuries !!!"

Riff 6, play 6 times
e|------------------------------------------------------------|
B|------------------------------------------------------------|
G|---------------7-----------------------------3--------------|
D|-----9h10-9--9---10-9-7-9-10-9-----5h6--5--5---6-5-3-5-6-5--|
A|-7------------------------------3---------------------------|
E|------------------------------------------------------------|

3rd time 2nd guitar joins:
e|------------------------------------------------------------|
B|----12h13-13------------------------------------------------|
G|----------------------------------12h13-12------------------|
D|------------------------------------------------------------|
A|------------------------------------------------------------|
E|------------------------------------------------------------|

Intro riff
Riff 4, 4 times

Ending riff (riff 4a), play 2 times
   1   2   3   4   1   2   3   4   1   2   3   4   1    2    3   4
e|------------------------------------------------------------------|
B|------------------------------------------------------------------|
G|------------------------------------------------------------------|
D|-9-------10--9---7---------5-----9-------10--9---12--10---9---10--|
A|-7--------8--7---5---5-7-8---8-7-7--------8--7---10---8---7----8--|
E|------------------------------------------------------------------|

Last chord: high E5
Tap to rate this tab
# A B C D E F G H I J K L M N O P Q R S T U V W X Y Z