Song name
# A B C D E F G H I J K L M N O P Q R S T U V W X Y Z

Enthroned - Satan Never Sleeps tab

Band- Enthroned
Song- Satan Never Sleeps

tune normal

Riff:1
|-------------------------------------------------------------------|
|-------------------------------------------------------------------|
|-------------------------------------------------------------------|
|-7--9-10-9-7----7-----7--9-10-9-7---7-----7---9--10--9--7-----7----|Gtr1
|--------------8---7---------------8---7--------------------8-----7-|
|-------------------------------------------------------------------|
|
|-------------------------------------------------------------------|
|------------------------------------------10--12-13-12-10-----10---|
|-----------------------------------------------------------10----9-|
|----------------------7--9-10-9-7---7------------------------------|Gtr2
|----------------------------------8---7----------------------------|
|-------------------------------------------------------------------|

Cont.
|-------------------------------------------------------------------|
|-------------------------------------------------------------------|
|-------------------------------------------------------------------|
|--7---9--10--9--7-----7--9-7---------------------------------------|Gtr1
|-------------------8-----7-5---------------------------------------|
|-------------------------------------------------------------------|
|
|-------------------------------------------------------------------|
|--10--12-13-12-10-----10-------------------------------------------|
|-------------------10----9-7---------------------------------------|
|-------------------------------------------------------------------|Gtr2
|-------------------------------------------------------------------|
|-------------------------------------------------------------------|

Riff:2
|-------------------------------------------------------------------|
|-------------------------------------------------------------------|
|--------------tr---------------------------------------------------|
|----------8--7-8--------------tr-----------------------------------|
|--7-7-7-7---------7-7-7-7-8--7-8--7-7-7-7-10-101010-101010-10101010|
|--5-5-5-5---------5-5-5-5---------5-5-5-5-8--8-8-8--8-8-8--8-8-8-8-|

Fill:1 Riff:3
|-----|-------------------------------------------------------------|
|-----|-------------------------------------------------------------|
|-----|---p-------p------p------p------p-------p------p------p------|
|-----|--8-0-00-10-0-00-8-0-00-7-0-00-8-0-00-10-0-00-8-0-00-7-0-----|
|--7--|-------------------------------------------------------------|
|--5--|-------------------------------------------------------------|

Cont.
|-------------------------------------------------------------------|
|-------------------------------------------------------------------|
|------p-------p------p------p--------------------------------------|
|--00-8-0-00-10-0-00-8-0-00-7-0-00--7--10-9-------------------------|
|-----------------------------------5--8--7-------------------------|
|-------------------------------------------------------------------|

Riff:4
|-------------------------------------------------------------------|
|-------------------------------------------------------------------|
|-------------------------------------------------------------------|
|-9-999-109--7-777-9-7--5-555-7-5--9-999-109--7-777-9-7--5-555-7-5-4|
|-7-777-8-7--5-555-7-5--3-333-5-3--7-777-8-7--5-555-7-5--3-333-5-3-2|
|-------------------------------------------------------------------|

Fill:2   Riff:5                        Riff:6
|-------|-----------------------------|-----------------------------|
|-------|-----------------------------|-----------------------------|
|-------|-----------------------------|-----------------------------|
|-------|-----------------------------|--------4--------------------|
|--(2)--|-----------------------------|--2--2--2--5-----------------|
|--(0)--|--000333222555-000333222111--|--0--0-----3-----------------|

Riff:7
|-------------------------------------------------------------------|
|-------------------------------------------------------------------|
|-------------------------------------------------------------------|
|-----------------------------10-8-----------------------------888--|
|----8-7-8----8-7-8----8-7-8--8--6----8-7-8----8-7-8----8-7-8--666--|
|--5--------5--------5--------------5--------5--------5-------------|

Riff:8
|-------------------------------------------------------------------|
|-------------------------------------------------------------------|
|-------------------------------------------------------------------|
|-------------------------------------------------------------------|
|--4/5-----7/8-----4/5-----7/8-----4/5-----7/8-----4/5------5-4-3---|
|--2/3-000-5/6-000-2/3-000-5/6-000-2/3-000-5/6-000-2/3-000--3-2-1---|

Fill:3
|-------------------------------------------------------------------|
|-------------------------------------------------------------------|
|-------------------------------------------------------------------|
|-------------------------------------------------------------------|
|--7--5--4--2-----------------------(2)-----------------------------|
|--5--3--2--0--00000000000000000000-(0)-----------------------------|
Tap to rate this tab
 
# A B C D E F G H I J K L M N O P Q R S T U V W X Y Z