Song name
# A B C D E F G H I J K L M N O P Q R S T U V W X Y Z

Entity Paradigm - Hamesha tab

These are the tabs and chords played throughout this song..

After the bass(5 7 3)               then...

|--------10-9-----|                  |--14-15-12-------|
|--10-12----------|                  |-----------15----|
|-----------------|                  |-----------------|
|-----------------|                  |-----------------|
|-----------------|                  |-----------------|
|-----------------|                  |-----------------|


Then........

|--------------------------------|
|--------------------------------|
|-4-4---7-7----------------------|
|-2-2---5-5---7-7---5-5---7-7----|
|-2-2---5-5---5-5---3-3---5-5----|
|-------------5-5---3-3---5-5----|   x3

or play the chords: Em     G    D      C     D  (x3)(these are used throughout the song including chorus)

tabs played during the rap part are...

|-----12-14----12-14--17-16------|
|--12-------12-------------------|
|--------------------------------|
|--------------------------------|
|--------------------------------|
|--------------------------------|


solo..

|---------------------------------|
|---------------------------------|
|---------------------------------|
|---5-5-5/7-8----7/9-7-5-7-9-7----|
|---------------------------------|
|---------------------------------|

|---------------------------------|
|---------------------------------|
|---------------------------------|
|---5-4-5-5/7-4----5-4-2-4-5-4----|
|---------------------------------|
|---------------------------------|

|--12-12-12-12---14-14-14-14------|
|----12-12-12-12---12-12-12-12----|
|---------------------------------|
|---------------------------------|
|---------------------------------|
|---------------------------------| x2

|--12-12-12-12---14-14-14-14------|
|----12-12-12-12---12-12-12-12----|
|---------------------------------|
|---------------------------------|
|---------------------------------|
|---------------------------------|

|--15-15-15-15---14-14-14-14------|
|----12-2-12-12---12-12-12-12-----|
|---------------------------------|
|---------------------------------|
|---------------------------------|
|---------------------------------|
Tap to rate this tab
 
# A B C D E F G H I J K L M N O P Q R S T U V W X Y Z