Song name
# A B C D E F G H I J K L M N O P Q R S T U V W X Y Z

Entity Paradigm - Kahan Hay Tu tab

Band: Entity Paradigm
Song: Kahan Hain Tu
Tuning: DADGBe
TAbbed: ahm3d_nad33m

Intro:
DISTORTION
[ PALM-MUTED ]
e|-------------------------------------------------------------------------|
B|-------------------------------------------------------------------------|
G|-------------------------------------------------------------------------|
D|-0--0-0-0--0-0--0-0--0--0-0-0--0-0--0-0--0--0-0-0--0-0--0-0--0-0-0-0-0-0-|
A|-0--0-0-0--0-0--0-0--0--0-0-0--0-0--0-0--0--0-0-0--0-0--0-0--0-0-0-0-0-0-|
D|-0--0-0-0--0-0--0-0--0--0-0-0--0-0--0-0--0--0-0-0--0-0--0-0--0-0-0-0-0-0-|

Main Riff:
[ DISTORTION ]
e|-------------------------------------------------------------------------|
B|-------------------------------------------------------------------------|
G|-------------------------------------------------------------------------|
D|-10h12-12-12-10h12-12-12-/15----10h12-12-12-10h12-12-12---3---0----------|
A|-10h12-12-12-10h12-12-12-/15----10h12-12-12-10h12-12-12---3---0----------|
D|-10h12-12-12-10h12-12-12-/15----10h12-12-12-10h12-12-12---3---0----------|

e|-------------------------------------------------------------------------|
B|-------------------------------------------------------------------------|
G|-------------------------------------------------------------------------|
D|-10h12-12-12-10h12-12-12-/15----10h12-12-12-10--00-3-00-3-00-3-0---------|
A|-10h12-12-12-10h12-12-12-/15----10h12-12-12-10--00-3-00-3-00-3-0--let----|
D|-10h12-12-12-10h12-12-12-/15----10h12-12-12-10--00-3-00-3-00-3-0--ring---|

VERSE
[ CLEAR ]
e|-------------------------------------------------------------------------|
B|--3-------------11--------------6-----6----------------------------------|
G|--2-------------10--------------5-------5--------------------------------|
D|--0-------------8---------------3---3-----3------------------------------|
A|--0-------------8---------------3----------------------------------------|
D|--0-------------8---------------3----------------------------------------|


PRECHORUS
[ DISTORTION ]

e|-------------------------------------------------------------------------|
B|-------------------------------------------------------------------------|
G|-------------------------------------------------------------------------|
D|--5-555-5-555-7-777-7-777-8-888-8-888-7-777-7-777-8-7-5------------------|
A|--5-555-5-555-7-777-7-777-8-888-8-888-7-777-7-777-8-7-5------------------|
D|--5-555-5-555-7-777-7-777-8-888-8-888-7-777-7-777-8-7-5------------------|

2nd Guitar
e|--10-10-10-10-12-12-12-12-13-13-13-13-12-12-12-12------------------------|
B|---10-10-10-10-10-10-10-10-10-10-10-10-10-10-10-10-----------------------|
G|-------------------------------------------------------------------------|
D|-------------------------------------------------------------------------|
A|-------------------------------------------------------------------------|
E|-------------------------------------------------------------------------|

e|-------------------------------------------------------------------------|
B|-------------------------------------------------------------------------|
G|-------------------------------------------------------------------------|
D|--5-555-5-555-7-777-7-777-8-888-8-888-1010101010101010-------------------|
A|--5-555-5-555-7-777-7-777-8-888-8-888-1010101010101010-------------------|
D|--5-555-5-555-7-777-7-777-8-888-8-888-1010101010101010-------------------|

2nd Guitar
e|--10-10-10-10-12-12-12-12-13-13-13-13-15-15-15-15------------------------|
B|---10-10-10-10-10-10-10-10-10-10-10-10-10-10-10-10-----------------------|
G|-------------------------------------------------------------------------|
D|-------------------------------------------------------------------------|
A|-------------------------------------------------------------------------|
E|-------------------------------------------------------------------------|

BACK TO:
MAIN RIFF
VERSE

[ in the second verse it there is a distorted guitar ]
[ palm-muted ]
e|-------------------------------------------------------------------------|
B|-------------------------------------------------------------------------|
G|-------------------------------------------------------------------------|
D|-00000000-88888888-33333333-33333333-------------------------------------|
A|-00000000-88888888-33333333-33333333-------------------------------------|
D|-00000000-88888888-33333333-33333333-------------------------------------|

THEN PRECHORUS

CHORUS

e|-------------------------------------------------------------------------|
B|-------------------------------------------------------------------------|
G|-------------------------------------------------------------------------|
D|-00000000-88888888-33333333-33333333--00-3-00-3--------------------------|
A|-00000000-88888888-33333333-33333333--00-3-00-3--------------------------|
D|-00000000-88888888-33333333-33333333--00-3-00-3--------------------------|

BRIDGE

e|-------------------------------------------------------------------------|
B|-------------------------------------------------------------------------|
G|-------------------------------------------------------------------------|
D|-0----3----5-0-3-5-------------------------------------------------------|
A|-0----3----5-0-3-5-------------------------------------------------------|
D|-0----3----5-0-3-5-------------------------------------------------------|

THEN CHORUS AGAIN

END ON

e|----------------------------|
B|----------------------------|
G|----------------------------|
D|---00-3-00-3-00-3-0---------|
A|---00-3-00-3-00-3-0--let----|
D|---00-3-00-3-00-3-0--ring---|

ORDER:
INTRO
MAIN RIFF
VERSE
PRECHORUS
MAIN RIFF
VERSE
DISTORTED VERSE
PRECHORUS
CHORUS
BRIDGE
CHORUS


Tap to rate this tab
 
# A B C D E F G H I J K L M N O P Q R S T U V W X Y Z