Song name
# A B C D E F G H I J K L M N O P Q R S T U V W X Y Z

Entity Paradigm - Waqt Acoustic tab

Play it on open or bar and play the chorus on power chords.
Drop D Tuning

Am.......................F.....................

Ek ehaasah hain jo socha na tha

C.............................G................... ..

Waqt Dhalta raha main chalta raha

Am...............F.......................C........ .........G..............

Umeedo ke iss saye taale khwabon ko tarasta raha

Am....................F....................C...... .................G.................

Toh Dill mera roye toh kya.. Waqt iraado ko tode toh kya

Am.......F............C..............G........Am.. .F.............C..................G...

Manzil ko apni paayenge hum.. Waqt ko apna banayegnge hum....

Am....................F....................C...... .................G.................

Hoooohoooooohooooohooooohoooohoohooo jo chaon woh hoo

Rest is the same

OUTRO:

e---------------------------------------------------------------------------------|
B-3/10-11-------------------------------------------------------------------------|
G---------10~-12-12/14-10-9-10-9-5~~~~/14-12h14-12~~------------------------------|
D---------------------------------------------------------------------------------|
A---------------------------------------------------------------------------------|
D---------------------------------------------------------------------------------|

e---------------------------------------------------------------------------------|
B-3/10-11-----------11/13---------------------------------------------------------|
G---------10~-10-12-------10-9-10-9-5~~~~/14-12h14-12~~~~-12/14~~~~~~~~-----------|
D---------------------------------------------------------------------------------|
A---------------------------------------------------------------------------------|
D---------------------------------------------------------------------------------|
Tap to rate this tab
# A B C D E F G H I J K L M N O P Q R S T U V W X Y Z