Song name
# A B C D E F G H I J K L M N O P Q R S T U V W X Y Z

Entity Paradigm - Khushi tab

This is the song xulfi played on "Rock On" on teh music. I'm not
sure of the title but the forums sed this was it:

tuning is dropped D


INTRO
[---------------------------------------------------------------]
[---------------------------------------------------------------]
[----0h2-2----4h7-7----11h12-11---9---7-------------------------] 
[---------------------------------------------------------------]
[---------------------------------------------------------------]
[--2--------5--------0----------0----0--------------------------]


[---------------------------------------------------------------]
[---------------------------------------------------------------]
[----0h2-2----4h7-7----11h12h14---11---9---7--------------------] 
[---------------------------------------------------------------]
[---------------------------------------------------------------]
[--2--------5--------0----------0----0----0---------------------]

VERSE

[-------------------------------------------------------]
[-------------------------------------------------------]
[-------------------------------------------------------] 
[--2--------5--------0-----------7-5--------------------]
[--2--------5--------0-----------7-5--------------------]
[--2--------5--------0-----------7-5--------------------]

THEN TOWARDS THE END HE DOES THIS:
[----------0-------------------0--------------------------]
[----------0-------------------0--------------------------]
[----------4-------------------9--------------------------] 
[----------5-------------------7--------------------------]
[----------5-------------------7--------------------------]
[----------5-------------------7--------------------------]
HE's Strumming these chords but its hard to make out wht hes singing, since the host is talking
 
Tap to rate this tab
 
# A B C D E F G H I J K L M N O P Q R S T U V W X Y Z