Song name
# A B C D E F G H I J K L M N O P Q R S T U V W X Y Z

Entombed - Lost tab

Band- Entombed
Song- Lost

tab key:
/ slide up
\ slide down
b bend
h hammer on
p pull off
*harmonics
x dead note
()remaining sound
. palm mute
' tremelo pick

D|--------------------|6x
A|--------------------|
F|--------------------|
C|--------------------|
G|----------------0-2\|
C|-10-10/14\10-9b-0-2\|

Play this through the verses:
D|--------------------|2x
A|--------------------|
F|--------------------|
C|--------------------|
G|----------------0-2~|
C|-10-10/14\10-9b-0-2~|

then intro to chorus:
D|--------------------------------------------|
A|--------------------------------------------|
F|--------------------------------------------|
C|--------------------------------------------|
G|----------------0-7-7-7-7-7-7-7-10-------0-2|
C|-10-10/14/10-9b-0-7-7-7-7-7-7-7-10-------0-2|

then chorus:
D|--------------------|4x
A|--------------------|
F|--------------------|
C|--------------------|
G|-0-0-0-0-5-5-0-2/10-|
C|-0-0-0-0-5-5-0-2/10-|

then verses:
D|--------------------|6x
A|--------------------|
F|--------------------|
C|--------------------|
G|----------------0-2~|
C|-10-10/14\10-9b-0-2~|

the solo I couldnt tab out, but, if u hear the song, u 
use crybaby wah, its pretty easy to learn by ear, but 
tabbing it out is hard.

then 2nd verse again:
D|--------------------|2x
A|--------------------|
F|--------------------|
C|--------------------|
G|----------------0-2~|
C|-10-10/14\10-9b-0-2~|

then intro to chorus:
D|--------------------------------------------|
A|--------------------------------------------|
F|--------------------------------------------|
C|--------------------------------------------|
G|----------------0-7-7-7-7-7-7-7-10-10----0-2|
C|-10-10/14/10-9b-0-7-7-7-7-7-7-7-10-10----0-2|

then chorus:
D|--------------------|4x
A|--------------------|
F|--------------------|
C|--------------------|
G|-0-0-0-0-5-5-0-2/10-|
C|-0-0-0-0-5-5-0-2/10-|

then outro, do a bunch of times:
D|--------------------|4x
A|--------------------|
F|--------------------|
C|--------------------|
G|-0-0-0-0-5-5-0-2/10-|
C|-0-0-0-0-5-5-0-2/10-|
Tap to rate this tab
# A B C D E F G H I J K L M N O P Q R S T U V W X Y Z