Song name
# A B C D E F G H I J K L M N O P Q R S T U V W X Y Z

Entombed - Heavens Die tab

"Heavens Die"-Entombed
off the 1993 recording "Wolverine Blues"
Tabbed by Charles Elliott

*All guitars tune down 2 whole steps(low to high:C,F,A#,D#,G,C)

Riff 1
[------------------------------------------------------]
[------------------------------------------------------]
[------------------------------------------------------]
[--6--6--6----9--9--9----12--12--12--12--12--12--------]
[--6--6--6----9--9--9----12--12--12--12--12--12--------]
[--4--4--4----7--7--7----10--10--10--10--10--10--------]


Riff 2
[-----------------------------------------------------------------------]
[-----------------------------------------------------------------------]
[-----------------------------------------------------------------------]
[--6--6--6--6--6----5--2--5--2--5----6--6--6--6--6----5--2--5--------6--]
[--6--6--6--6--6----5--2--5--2--5----6--6--6--6--6----5--2--5--------6--]
[--4--4--4--4--4----3--0--3--0--3----4--4--4--4--4----3--0--3--0-0-6-4--]
      pm--]                     pm      pm--]                    pm~~


Riff 2 continued
[---------------------------------------------------------------------------]
[---------------------------------------------------------------------------]
[---------------------------------------------------------------------------]
[--6--6--6--6--6----5--2--5--2--5----6--6--6--6--6----5--5--5--5--2--2--2---]
[--6--6--6--6--6----5--2--5--2--5----6--6--6--6--6----5--5--5--5--2--2--2---]
[--4--4--4--4--4----3--0--3--0--3----4--4--4--4--4----3--3--3--3--0--0--0---]
      pm--]                     pm     
pm--]                               


Riff 3
[-------------------------3-/-5-----------------------------------------]
[--------------------------------6-5------------------------------------]
[--4--4--4----7-/-8--7------------------4--4--4----7-/-8--7----9-10-9---]
[--4--4--4----7-/-8--7------------------4--4--4----7-/-8--7----9-10-9---]
[--2--2--2----5-/-6--5------------------2--2--2----5-/-6--5----7-8--7---]
[-----------------------------------------------------------------------]


Riff4                           Riff 4b(played over Riff 4)
[-----------------------------][---------------------------------------]
[-----------------------------][---------------------------------------]
[-----------------------------][---------------------------------------]
[--6---2----6--5--2---6---2---][---------------------------------------]
[--6---2----6--5--2---6---2---][--4-5-4-p-2--4-p-2--2----4-5-4-p-2-2---]
[--4---0----4--3--0---4---0---][---------------------------------------]



Riff 5
[-----------------------]
[-----------------------]
[-----------------------]
[-----------------------]
[-----2-4-h-5-4-p-2-2---]
[--4--------------------]


Riff 6
[-----------------------------------------------]
[-----------------------------------------------]
[-----------------------------------------------]
[--8--8----9--9--9----12--12--12----11--11--11--]
[--8--8----9--9--9----10--10--10----9---9---9---]
[--6--6----7--7--7----10--10--10----9---9---9---]


Riff 7
[---------------------------------------------------]
[---------------------------------------------------]
[---------------------------------------------------]
[--6-6-6----9-9-9----8-8-8--------------------------]
[----------------------------9-9-9----8-8-8---9-9---]
[---------------------------------------------------]


Riff 8       Riff 9
[----------][-------------------------]
[----------][-------------------------]
[----------][-------------------------]
[--2---5---][--7----------------------]
[--2---5---][--5---4h5p4h5p4h5p4h5p4--]
[--0---3---][--5----------------------]


What does it all mean?: (ph) pinch harmonic, / slide(first note picked
only),
h hammer on, p pull off, ~ virbrato, pm palm mute.

Get your shit together:

Riff 1, x4
Riff 2, x4
Riff 3, x2
Riff 2, x2
Riff 3, x2
Riff 4, x1(play Riffb x2 over it)
Riff 5, x2
Riff 4, x1(play Riffb x2 over it)
Riff 5, x2
Riff 6, x6(solo)
Riff 7, x2
Riff 8, x1
Riff 7, x1
Riff 9, x1
Riff 2, x2
Riff 3, x2
Riff 4, x1(dido)
Riff 5, x2
Riff 4, x1(dido)
Riff 5, x2

celli48202@earthlink.net Later!!!!!
Tap to rate this tab
# A B C D E F G H I J K L M N O P Q R S T U V W X Y Z