Song name
# A B C D E F G H I J K L M N O P Q R S T U V W X Y Z

Entombed - Black Breath tab

Band- Entombed
Song- Black Breath

Riff A
---------------------------------------------------------|
---------------------------------------------------------|
---------------------------------------------------------|
------------------2------4----------------2---5-5--------|
--4---------------2------2--4-------------2-4-2-3--------|
--2--2-2-2-2-2-2-----2-2----2--2-2-2-2-2----2------------|


Riff B
---------------------------------------------------------|
---------------------------------------------------------|
---------------------------------------------------------|
----------7/9--------------------------------------------|
--2--2-2--5/7---------5/7-8-8----------------------------|
--0--0-0------0-0-0-0-3/6-6-6----------------------------|

---------------------------------------------------------|
---------------------------------------------------------|
---------------------------------------------------------|
---------------------------8-8---------------------------|
--2--2-2--5/7---------5/7--6-6---------------------------|
--0--0-0------0-0-0-0-3/6--------------------------------|

---------------------------------------------------------|
---------------------------------------------------------|
---------------------------------------------------------|
----------7/9--------------------------------------------|
--2--2-2--5/7---------5/7-8-8----------------------------|
--0--0-0------0-0-0-0-3/6-6-6----------------------------|

---------------------------------------------------------|
---------------------------------------------------------|
---------------------------------------------------------|
----------7/9--------------8-7---------------------------|
--2--2-2--5/7---------5/7--6-5---------------------------|
--0--0-0------0-0-0-0-3/6--------------------------------|

---------------------------------------------------------|
---------------------------------------------------------|
---------------------------------------------------------|
---------------------------------------------------------|
--2-2----------------------------------------------------|
--0-0--6-6-6-6-13-13-13-10-10-10-------------------------|

---------------------------------------------------------|
---------------------------------------------------------|
---------------------------------------------------------|
---------------------------------------------------------|
--2-2----------------------------------------------------|
--0-0--6-6-6-6-13-13-13-12-12-12-------------------------|

---------------------------------------------------------|
---------------------------------------------------------|
---------------------------------------------------------|
---------------------------------------------------------|
--2------3-3----------4-5--------------------------------|
--0--0-0-1-1--0-0-0-0-2-3--------------------------------|
Tap to rate this tab
# A B C D E F G H I J K L M N O P Q R S T U V W X Y Z