Song name
# A B C D E F G H I J K L M N O P Q R S T U V W X Y Z

Entombed - Ensemble Of The Restless tab

Band- Entombed
Song- Ensemble Of The Restless

Tuning; Standard C, C,F,A#,D#,G,C
(I spaced this one out more than my others, easier to read)
Intro Riff
|----------------------------------|
|----------------------------------|
|----------------------------------|
|----------------------------------|
|----------------------------------|
|--5/6-0-0-0-0-5/6-0-0-0-0-0-0-0-0-|
       . . . .     . . . . . . . .
4th Time
|-----------------------|
|-----------------------|
|-----------------------|
|--6-6-6-6-6-6-6-6------|
|--4-4-4-4-4-4-4-4------|
|-----------------------|

Verse Riff
|------------------------------------------|
|------------------------------------------|
|------------------------------------------|
|-------3------------------3---------h--5--|
|---------------5---6------------5--5-6----|
|--3-3-3--3-3-3---3---3-3-3--3-3---3-------|
   . . .  . . .   .   . . .  . .   .     x2
|------------------------------------------|
|------------------------------------------|
|------------------------------------------|
|-------3------------------3---------p-----|
|---------------5---6------------5--6-5----|
|--3-3-3--3-3-3---3---3-3-3--3-3---3---6---|
   . . .  . . .   .   . . .  . .   .
Pre-Chorus Riff                                           x2
|-----------------------------------------------------------|
|-----------------------------------------------------------|
|----------hphp------------9--------hphp--------------------|
|----2----78787----2----787----2---78787----2---------------|
|-2----2--------2----2------2----2-------2----2-2-5-7-8-----|
|-0-3--0--------0-3--0------0-3--0-------0-3--0-0-3-5-6-----|

Chorus
|----------------------------------|
|----------------------------------|
|----------------------------------|
|-9---9-7-10-----------------------|
|-7---7-5--8--3---5---5--7--8--10--|
|-------------1---3---3--5--6--8---|

Repeat Intro (1st) Riff
Then Play Verse, Pre-Chorus and Chorus Riffs
Verse Riff has a delay "slow down/speed up" effect.

End Riff(s)
|--------------------------------|
|--------------------------------|
|--------------------------------|
|--h----------h------------------|
|-5-7--------5-7-----------------|
|----0-0-0-0----0-0-0-0-0-0-0-0--|
     . . . .    . . . . . . . .
|--------------------------------|
|--------------------------------|
|--h-----------------------------|
|-2-3--------2-3-----------------|
|--------------------------------|
|----3-3-3-3----3-3-3-3-3-3-3-3--|
     . . . .    . . . . . . . .
|--------------------------------|
|--------------------------------|
|--h-----------------------------|
|-2-3--------2-3-----------------|
|----1-1-1-1----1-1-1-1-1-1-1-1--|
|--------------------------------|
     . . . .    . . . . . . . .

|---------------------------|
|---------------------------|
|-------------------hphp----|
|-2-3--------------56565----|
|----0-0-0-0--h-h--------2--|
|------------3-5-6-------0--|
     . . . .
End
Tap to rate this tab
 
# A B C D E F G H I J K L M N O P Q R S T U V W X Y Z