Song name
# A B C D E F G H I J K L M N O P Q R S T U V W X Y Z

Entombed - Wolverine Blues tab

#----------------------------------PLEASE NOTE---------------------------------#
#This file is the author's own work and represents their interpretation of the #
#song. You may only use this file for private study, scholarship, or research. #
#------------------------------------------------------------------------------#

WOLVERINE BLUES
As recorded by Entombed
(From the 1993 Album WOLVERINE BLUES)

Transcribed by The Foreverlorn
	

Words by Hellid Music by Andersson, Cederlund
Arranged by Entombed

Gtr I (Bb Eb Ab Db F Bb) - 'Alex'
Gtr II (Bb Eb Ab Db F Bb) - 'Uffe'

 Intro
  Q=140
                 F5         E5
 4/4
  Gtr I
                 PM|      PM  PM--|       PM
  Wx2            E E E Q  E E E   E E E E E E E E   4x
|------------||-----------------|-------------------||
|------------||o----------------|------------------o||
|------------||-----------------|-------------------||
|------------||-------------2---|---9-9-9---9-9-9---||
|------------||o-3-3-5-6----2---|---7-7-7---7-7-7--o||
|------------||--1-1-3-4--0-0-0-|-0-------0---------||


    F5         E5
    Gtr I
    PM|      PM  PM--|       PM
    E E E Q  E E E   E E E E E E E E  4x
||-----------------|------------------||
||o----------------|-----------------o||
||-----------------|------------------||
||-------------2---|---9-9-9---9-9-9--||
||o-3-3-5-6----2---|---7-7-7---7-7-7-o||
||--1-1-3-4--0-0-0-|-0-------0--------||
|
|   Gtr II
|   PM|      PM  PM--|   PM|   PM|
|   E E E Q  E E E   E E E E E E E E  4x
||-----------------|------------------||
||o----------------|-----------------o||
||-----------------|------------------||
||-------------2---|---2-----2-----2--||
||o-3-3-5-6----2---|---2-----2-----2-o||
||--1-1-3-4--0-0-0-|-0-0-0-0-0-0-0-0--||


   Verse
                             1.,2.,3.   4.
    $
    F5         E5
                                        2/4
    Gtrs I, II
    PM|      PM  PM--|   PM|   PM|
    E E E Q  E E E   E E E E E E E E  4x E E E E
||-----------------|------------------||---------|
||o----------------|-----------------o||---------|
||-----------------|------------------||---------|
||-------------2---|---2-----2-----2--||-2-2-2-2-|
||o-3-3-5-6----2---|---2-----2-----2-o||-2-2-2-2-|
||--1-1-3-4--0-0-0-|-0-0-0-0-0-0-0-0--||-0-0-0-0-|


 Pre-Chorus
  F5    A5    E5                       F5    A5    E5
 4/4
   Q.    Q.   Q    +E  E E E E E E E    Q.    Q.   Q    +E  E E E E E E E
|----------------|-------------------|----------------|-------------------|
|-------10-------|-------------------|-------10-------|-------------------|
|-10-----9----9--|-(9)-9-9-9-9-9-9-9-|-10-----9----9--|-(9)---------------|
|-10-----7----9--|-(9)-9-9-9-9-9-9-9-|-10-----7----9--|-(9)-2-2-2-2-2-2-2-|
|--8----------7--|-(7)-7-7-7-7-7-7-7-|--8----------7--|-(7)-2-2-2-2-2-2-2-|
|----------------|-------------------|----------------|-----0-0-0-0-0-0-0-|


  F5    A5    E5                       F5    A5    E5
  Gtr I
   Q.    Q.   Q    +E  E E E E E E E    Q.    Q.   Q
|----------------|-------------------|----------------|
|-------10-------|-------------------|-------10-------|
|-10-----9----9--|-(9)-9-9-9-9-9-9-9-|-10-----9-------|
|-10-----7----9--|-(9)-9-9-9-9-9-9-9-|-10-----7----2--|
|--8----------7--|-(7)-7-7-7-7-7-7-7-|--8----------2--|
|----------------|-------------------|-------------0--|
|
| Gtr II
|  Q.    Q.   Q    +E  E E E E E E E    Q.    Q.   Q
|----------------|-------------------|----------------|
|-------10-------|-------------------|-------10-------|
|-10-----9----9--|-(9)-9-9-9-9-9-9-9-|-10-----9-------|
|-10-----7----9--|-(9)-9-9-9-9-9-9-9-|-10-----7----2--|
|--8----------7--|-(7)-7-7-7-7-7-7-7-|--8----------2--|
|----------------|-------------------|-------------0--|


  +W           +W           +W
|------------|------------|-----------------|
|------------|------------|-----------------|
|------------|------------|-----------------|
|-(2)--------|-(2)--------|-(2)-------------|
|-(2)--------|-(2)--------|-(2)-------------|
|-(0)--------|-(0)--------|-(0)-------------|
|
| +W           +W           +H.        Q
|------------|------------|-----------------|
|------------|------------|-----------------|
|------------|------------|-----------------|
|-(2)--------|-(2)--------|-(2)-------------|
|-(2)--------|-(2)--------|-(2)-------------|
|-(0)--------|-(0)--------|-(0)------/12\---|


 Chorus
  E    Eb   D            Bb       E     Eb   D            Bb5
  Gtrs I, II
  ~~~~~~~~~~~~~~~~~~     ~           ~~~~~~~~~~~~~~~~ PM--------|
  H    Q.   E   +Q   E E Q  E E   Q  Q  Q.   E   +Q   E E E E E E
|-------------|-----------------|--------------|------------------|
|-------------|-----------------|--------------|------------------|
|-------------|-----------------|--------------|------------------|
|-------------|-----------------|--------------|------------------|
|-7----6----5-|-(5)-------------|----7--6----5-|-(5)--9-7-8-7-6-5-|
|-------------|------7-5-6--5-3-|-0------------|------7-5-6-5-4-3-|


                                                     D.S. al Coda
                                                     D.S. al Coda
  E5    Eb   D            Bb       E     Eb   D            Bb5
     ~~~~~~~~~~           ~           ~~~~~~~~~~~~~~~~ PM--------|
  Q  Q  Q.   E   +Q   E E Q  E E   Q  Q  Q.   E   +Q   E E E E E E
|--------------|-----------------|--------------|------------------|
|--------------|-----------------|--------------|------------------|
|--------------|-----------------|--------------|------------------|
|-2------------|-----------------|--------------|------------------|
|-2--7--6----5-|-(5)-------------|----7--6----5-|-(5)--9-7-8-7-6-5-|
|-0------------|------7-5-6--5-3-|-0------------|------7-5-6-5-4-3-|


 Out-Chorus
  &
  E5    Eb   D            Bb       E     Eb   D            Bb5
     ~~~~~~~~~~~~~~~~     ~           ~~~~~~~~~~~~~~~~ PM--------|
  Q  Q  Q.   E   +Q   E E Q  E E   Q  Q  Q.   E   +Q   E E E E E E
|--------------|-----------------|--------------|------------------|
|--------------|-----------------|--------------|------------------|
|--------------|-----------------|--------------|------------------|
|-2------------|-----------------|--------------|------------------|
|-2--7--6----5-|-(5)-------------|----7--6----5-|-(5)--9-7-8-7-6-5-|
|-0------------|------7-5-6--5-3-|-0------------|------7-5-6-5-4-3-|


  E5    Eb   D            Bb       E     Eb   D            Bb5   G5
     ~~~~~~~~~~           ~           ~~~~~~~~~~~~~~~~ PM--------|
  Q  Q  Q.   E   +Q   E E Q  E E   Q  Q  Q.   E   +Q   E E E E E E
|--------------|-----------------|--------------|------------------|
|--------------|-----------------|--------------|------------------|
|--------------|-----------------|--------------|------------------|
|-2------------|-----------------|--------------|------------------|
|-2--7--6----5-|-(5)-------------|----7--6----5-|-(5)--9-7-8-7-6-5-|
|-0------------|------7-5-6--5-3-|-0------------|------7-5-6-5-4-3-|


 Fin
         Bb5   G5       Bb5   G5E5
       PM------|      PM------|
  Q.   E E E E E   Q  E E E E E e
|----------------|----------------*|
|----------------|----------------*|
|----------------|----------------*|
|----------------|----------------*|
|------7-8-7-6-5-|----7-8-7-6-5-2-*|
|------5-6-5-4-3-|----5-6-5-4-3-0-*|



Duration Legend
---------------
W - whole; H - half; Q - quarter; E - 8th; S - 16th; T - 32nd; X - 64th; a - acciaccatura
+ - note tied to previous; . - note dotted; .. - note double dotted
Uncapitalized letters represent notes that are staccato (1/2 duration)
Irregular groupings are notated above the duration line
Duration letters will always appear directly above the note/fret number it represents the
duration for.  Duration letters with no fret number below them represent rests.  Multi-
bar rests are notated in the form Wxn, where n is the number of bars to rest for.  Low
melody durations appear below the staff

Tablature Legend
----------------
 h   - hammer-on
 p   - pull-off
 b   - bend
 pb  - pre-bend
 r   - bend release (if no number after the r, then release immediately)
 /\  - slide into or out of (from/to "nowhere")
 s   - legato slide
 S   - shift slide
 - natural harmonic
[n]  - artificial harmonic
n(n) - tapped harmonic
 ~   - vibrato
 tr  - trill
 T   - tap
 TP  - trem. picking
 PM  - palm muting
\n/  - tremolo bar dip; n = amount to dip
 \n  - tremolo bar down
 n/  - tremolo bar up
/n\  - tremolo bar inverted dip
 =   - hold bend; also acts as connecting device for hammers/pulls
 <> - volume swell (louder/softer)
 x   - on rhythm slash represents muted slash
 o   - on rhythm slash represents single note slash

Misc Legend
-----------
 |  - bar
||  - double bar
||o - repeat start
o|| - repeat end
*|  - double bar (ending)
 :  - bar (freetime)
 $  - Segno
 &  - Coda
Tempo markers -  = BPM(8/16=s8/s16), where s8 = swing 8ths, s16 = swing 16ths

Tap to rate this tab
# A B C D E F G H I J K L M N O P Q R S T U V W X Y Z