Song name
# A B C D E F G H I J K L M N O P Q R S T U V W X Y Z

Entombed - Year One Now tab

Band- Entombed
Song- Year One Now

Riff A
---------------------------------------------------------|
---------------------------------------------------------|
---------------------------------------------------------|
-----3-2-----3----(play this 2 times)--------------------|
-5-4-1-0-5-4-1-3-----------------------------------------|
-3-2-----3-2---1-----------------------------------------|

then...
Riff B
---------------------------------------------------------|
---------------------------------------------------------|
---------------------------------------------------------|
-----2-3-2------3----------------------------------------|
-5-4-0-1-0--5-4-1-3--------------------------------------|
-3-2--------3-2---1--------------------------------------|

Riff C
---------------------------------------------------------|
---------------------------------------------------------|
---------------------------------------------------------|
----------------------------------3-3--------------------|
-2-2-2-2-2-2-3-5-3--5-5-5-5--3-3--1-1--------------------|
-0-0-0-0-0-0-1-3-1--3-3-3-3--1-1-------------------------|

Riff C2
with damping on the E's...
---------------------------------------------------------|
---------------------------------------------------------|
---------------------------------------------------------|
----------------------------------3-3--------------------|
-2-2-2-2-2-2-3-5-3--5-5-5-5--3-3--1-1--------------------|
-0-0-0-0-0-0-1-3-1--3-3-3-3--1-1-------------------------|


Riff D (not sure about this one)
---------------------------------------------------------|
---------------------------------------------------------|
---------------------------------------------------------|
-----------3-3-----4-4-----6-6-5-------------------------|
-----------1-1-----2-2-----4-4-3-------------------------|
-3-3-3-2-2-----2-3-----2-3-------------------------------|

Riff E backing for solo, the same as riff C
---------------------------------------------------------|
---------------------------------------------------------|
---------------------------------------------------------|
----------------------------------3-3--------------------|
-2-2-2-2-2-2-3-5-3--5-5-5-5--3-3--1-1--------------------|
-0-0-0-0-0-0-1-3-1--3-3-3-3--1-1-------------------------|

the short solo
------------------------12---15---17---19----------------|
--10^-10^8-8------10^---15^--18^--20^--22^---------------|
--------------7-9----------------------------------------|
---------------------------------------------------------|
---------------------------------------------------------|
---------------------------------------------------------|

Riff F
---------------------------------------------------------|
---------------------------------------------------------|
---------------------------------------------------------|
---9--9--7-9-7--10-10-7-9-7--9--9--7-9-7--10-10-7-9-7----|
---7--7--5-7-5--8--8--5-7-5--7--7--5-7-5--8--8--5-7-5----|
---------------------------------------------------------|

every second time, finish the riff F with

---------------------------------------------------------|
---5-----------------------------------------------------|
---8^----------------------------------------------------|
---------------------------------------------------------|
---------------------------------------------------------|
---------------------------------------------------------|

The Sweet Structure:
riff A 2 times
riff B 2 times
riff C 2 times (LG starts "singing" here)
riff C2 2 times
riff D 4 times
riff E 2 times plus solo
riff C2 2 times
riff D 4 times
riff F 4 times
finish of the kill kill! die die! part with:
riff A 2 times
Riff B 2 times
Tap to rate this tab
# A B C D E F G H I J K L M N O P Q R S T U V W X Y Z