Song name
# A B C D E F G H I J K L M N O P Q R S T U V W X Y Z

Entombed - Shreds Of Flesh tab

Shreds Of Flesh

Performed By: Entombed
From the EP: "Stranger Aeons"
(Also a bonus track from the '99 reissue of "Clandestine")

One of, if not my favorite Entombed song.
This was my first attempt at any song this fast,
so there are more than likely a few mistakes.
I encourage any comments or corrections to help
me make this as close to 100% as possible.


C-Tuning (C F A# D# G c) Low to High

Intro (0:00)
(Note: Play first three 0's twelve times in each
       progression, play the fourth only once)
       
 
|------------------------------------------------------|
|-----------------------------------------3p2p0-0h3/7--|
|---------------7p6\4-4\3-3----------------------------|
|------------------------------------------------------|
|-------1-----0-------------------1-----0--------------|
|-0-1-0---0-1---------------0-1-0---0-1----------------|
  . . . . . . .             . . . . . . .


(0:10)
|-------------------------------------------------------|
|-------------------------------------------------------|
|-------------------------------------------------------|
|----------------------------------------------------6--|
|--5-5-5-5-5-5-6-5-5-5-5-5-5-8-5-5-5-5-5-5-6-5-5-5-5-6--|
|--3-3-3-3-3-3-4-3-3-3-3-3-3-6-3-3-3-3-3-3-4-3-3-3-3-4--|
   . . . . . . . . . . . . . . . . . . . . . . . . .


 (0:13)
|-----------------------------------------------------|
|-----------------------------------------------------|
|------------------------------------------------6----|
|--------------------------------------------6-5-6-5--|   x4
|--5-5-5-5-5-5-6-5-5-5-5-5-5-8-5-5-5-5-5-5-6-6-5-4-5--|
|--3-3-3-3-3-3-4-3-3-3-3-3-3-6-3-3-3-3-3-3-4-4-3---3--|
   . . . . . . . . . . . . . . . . . . . . . 

(Do not play ending of riff 0:13 (after palm muting). Instead, play):

  |--3--|  |listen for timing & pickslide 2nd time|
|---------|----------------------------------------|
|---------|----------------------------------------|
|------6--|----------------------------------------|
|--6-5-6--|--2----3-2--------2---------------------|  x2
|--6-5-4--|--2--5-1-2--5-4-3-2---------------------|
|--4-3----|--0--3---0--3-2-1-0--0-2-0-2-3-0-2-3-1--|
                . .    . . .  


Verse (0:43):
("Blood gush forth"...)

|----------------------------------------------------------------|
|----------------------------------------------------------------|
|----------------------------------------------------------------|
|----------------------------------------------------------------|  x2
|--2--5-4-2--2-5-4-2--6p0-----3"--2--5-4-2--2-5-4-2--6p0---------|
|--0--3-2-0--0-3-2-0--4p0-4"------0--3-2-0--0-3-2-0--4p0-4"--1"--|
             . . .                          . . .

 
 (0:53)
|------------------------------------------------------------|
|------------------------------------------------------------|
|------------------------------------------------------------|
|-----------4---------------3-----------4--------------------|   x2
|--2--5-4/5-2-------------3----2--5-4/5-2-----------4p0-5\4--|
|--0--3-2/3---0-0-0-0-0-0------0--3-2/3---0-0-0-0-0-2p0-3\2--|
              . . . . . . .               . . . . . 


(Repeat Verse ("Hacking your body"...))


(1:15)
("Horrified, nauseating"...)

 x2                               2nd time only
|--------------------------------|---------------|
|--------------------------------|---------------|
|--------------------------------|---------------|
|--------------------------------|--------5------|
|----------------------4"-3"-----|--2--2--3-3-3--|
|--0"--3"-0"-4"----0"--------1"--|--0--0----1-1--|



 Rhythm backing under solo (1:28)
|-------------------------------------------------------------
|-------------------------------------------------------------
|-------------------------------------------------------------
|-------------------------------------------------------------
|--5-------------------------3/5-------------------------6\5--
|--3-3-3-3-3-3-3-3-3-3-3-3-3-1/3-3-3-3-3-3-3-3-3-3-3-3-3-4\3--
     . . . . . . . . . . . .     . . . . . . . . . . . .

 -------------------------------------------------------------
 -------------------------------------------------------------
 -------------------------------------------------------------
 --------------------------------3----------------------------
 ------------------------------5-1-5-7------------------------
 --3-3-3-3-3-3-3-3-3-3-3-3-3-3-3---3-5-5-5-5-5-5-5-5-5-5-5-5-5
   . . . . . . . . . . . . . .         . . . . . . . . . . . .

 -------------------------------------------------------------
 -------------------------------------------------------------
 -------------------------------------------------------------
 -------------------------------------------------------------
 5/7-------------------------8\7------------------------------
 3/5-5-5-5-5-5-5-5-5-5-5-5-5-6\5-5-5-5-5-5-5-5-5-5-5-5-5-5-5--
     . . . . . . . . . . . .     . . . . . . . . . . . . . .

 ---------|
 ---------|
 ---------|
 ----3-3--|
 --3-1-1--|
 --1------|


(Repeat Part at 0:00)
(Repeat Part at 0:10 (twice instead of four times))


END ON (2:01):
|-----|
|-----|
|-----|
|-----|
|--2--|
|--0--|


END
Tap to rate this tab
# A B C D E F G H I J K L M N O P Q R S T U V W X Y Z