Song name
# A B C D E F G H I J K L M N O P Q R S T U V W X Y Z

Entrails - To Live Is To Rot tab

Entrails - To Live Is To Rot

A# - Tuining

RIFF A X2

E-------------------------------------------------------|
B-------------------------------------------------------|
G------------------------------------7------------------|
D-/-2-5-7-10-10-12-9-8-2-(2)-2-5-7-8-7--------8-8-2-(2)-|
A-/-2-5-7-10-10-12-9-8-2-(2)-2-5-7-8-5-454545-8-8-2-(2)-|
E-/-0-3-5-8--8--10-7-6-0-----0-3-5-6----------6-6-0-----|

RIFF B X2

E------------------------------------------|
B------------------------------------------|
G------------------------------------------|
D------------------------------------------|
A-----1-2-----1-2----------1-2------1-2--5-|
E-0-0-----0-0-----3-3--0-0-----0-0-------3-|

RIFF C x3 (vokal på efter første gang)

E-------------------------------------------------------------------------------|
B-------------------------------------------------------------------------------|
G-------------------------------------------------------------------------------|
D-------------------------------------5-----------------------------------------|
A-----7--------6-7-8-----7--------6-7-------7--------6-7-8-----7--10-8-7--8-6-5-|
E-0-0---00-0-0-------0-0---00-0-0-------0-0---00-0-0-------0-0------------------|


RIFF D X2

E-----------------------------------------------------|
B-----------------------------------------------------|
G-9-9--------9-9--------9-10------10-12--12-12-10-9-9-|
D-9-9--------9-9--------9-10------10-12--12-12-10-9-9-|
A-7-7--------7-7--------7-8-------8--10--10-10-8--7-7-|
E-----0-8-10-----0-8-10-----0-8-10--------------------|


RIFF C x2

E-------------------------------------------------------------------------------|
B-------------------------------------------------------------------------------|
G-------------------------------------------------------------------------------|
D-------------------------------------5-----------------------------------------|
A-----7--------6-7-8-----7--------6-7-------7--------6-7-8-----7--10-8-7--8-6-5-|
E-0-0---00-0-0-------0-0---00-0-0-------0-0---00-0-0-------0-0------------------|


RIFF D X 4

E-----------------------------------------------------|
B-----------------------------------------------------|
G-9-9--------9-9--------9-10------10-12--12-12-10-9-9-|
D-9-9--------9-9--------9-10------10-12--12-12-10-9-9-|
A-7-7--------7-7--------7-8-------8--10--10-10-8--7-7-|
E-----0-8-10-----0-8-10-----0-8-10--------------------|

RIFF A X2

E-------------------------------------------------------|
B-------------------------------------------------------|
G------------------------------------7------------------|
D-/-2-5-7-10-10-12-9-8-2-(2)-2-5-7-8-7--------8-8-2-(2)-|
A-/-2-5-7-10-10-12-9-8-2-(2)-2-5-7-8-5-454545-8-8-2-(2)-|
E-/-0-3-5-8--8--10-7-6-0-----0-3-5-6----------6-6-0-----|

RIFF B X2

E------------------------------------------|
B------------------------------------------|
G------------------------------------------|
D------------------------------------------|
A-----1-2-----1-2----------1-2------1-2--5-|
E-0-0-----0-0-----3-3--0-0-----0-0-------3-|

RIFF B X2

E--------------------------------------------|
B--------------------------------------------|
G--------------------------------------------|
D--------------------------------------------|
A-----1-2-----1-2----------1-2------1-2--5-5-|
E-0-0-----0-0-----3-3--0-0-----0-0-------3-3-|


---The End---
Tap to rate this tab
# A B C D E F G H I J K L M N O P Q R S T U V W X Y Z