Song name
# A B C D E F G H I J K L M N O P Q R S T U V W X Y Z

Entwine - Out Of You tab

Sounds right to me

Intro
-------------------------------------------------------|
-------------------------------------------------------|
-------------------------------------------------------|  x2
-------------------------------------------------------|
2--2-2--2b3r2--2--2-2--2b3r2--2--2-2--2-3-5--5-0-0-2---|
2--2-2--2b3r2--2--2-2--2b3r2--2--2-2--2-3-5--5-0-0-2---|

Verse - Bass only

Pre-Chorus
------------------------------------------------------------------|
------------------------------------------------------------------|
------------------------------------------------------------------|  x2
------------------------------------------------------------------|
0-0-0-3-0-0-2-0-0-0-0-3-0-0-2-0-0-0-0-3-0-0-2-0-3-3-3-3-5-5-5-5---|
0-0-0-3-0-0-2-0-0-0-0-3-0-0-2-0-0-0-0-3-0-0-2-0-3-3-3-3-5-5-5-5---|

Chorus
----------------------------------------------------------------|
----------------------------------------------------------------|
----------------------------------------------------------------|
----------------------------------------------------------------|
2----3----5----0---2----3----5----0-----3--0-2-0-2-3------------|
2----3----5----0---2----3----5----0-----3--0-2-0-2-3------------|

Intro
Verse
Chorus x 2
Break
--------------------------------------------------|
--------------------------------------------------|
--------------------------------------------------|
--------------------------------------------------|
3---5---0---2----3---5---7---2----3----2---0---3--|
3---5---0---2----3---5---7---2----3----2---0---3--|

Solo (Rhythm is intro riff)

Chorus x 2
Outro is intro riff
Tap to rate this tab
 
# A B C D E F G H I J K L M N O P Q R S T U V W X Y Z