Song name
# A B C D E F G H I J K L M N O P Q R S T U V W X Y Z

Entwine - First Song tab

Band: Entwine
Song: First song
submitted: 11/8/06

The 1st Song Tuning (standard)

Intro

--------------------------------------------------------------|
--------------------------------------------------------------|
--------------------------------------------------------------|
----3333--33--/----3333--33-----------------------------------|(x2)
----3333--33--/----3333--33-----------------------------------|
----1111--11--/----1111--11-----------------------------------|

Verse (x8)

-------------------------------------------------------------|
-------------------------------------------------------------|
-------------------6666--------------------------------------|
---33--33--33--33--6666--------------------------------------|
---33--33--33--33--4444--------------------------------------|
---11--11--11--11--------------------------------------------|

Chorus (x4)

---------------------------------------------------------|
---------------------------------------------------------|
---33------55--------------------------------------------|
---33--33--55--33----------------------------------------|
---11--33--33--33----------------------------------------|
-------11------11----------------------------------------|

This is a song from a new band, hopefully youll hear it soon.
:) skipd
Tap to rate this tab
# A B C D E F G H I J K L M N O P Q R S T U V W X Y Z