Entwine - My Serenity tab

Drop D tuning eBGDAD

intro
e-------------12v----------------10v-------------11v------|
B-10p12-10-10-----10-10p12-10-10-----10p12-10-10------10--|
G---------------------------------------------------------|
D---------------------------------------------------------|
A---------------------------------------------------------|
D---------------------------------------------------------|

e-------------10v--|
B-10p12-10-10------|
G------------------|
D------------------|
A------------------|
D------------------|

rhythm >> intro(0m:07s)
e------------|
B------------|
G------------|
D-5-5-5--5-7-|  (8x)this part
A-5-5-5--5-7-|
D-5-5-5--5-7-|

effect keyboard
e----------------|
B-7(AR)/B/S-12RB-|
G----------------|
D----------------|
A----------------|
D----------------|

solo

e------------------------------------|
B------------------------------------|
G------------------------------------|
D-9vv-9-7-5v-5gs10--9-7--7gs9--7-5---|
A------------------------------------| (4x)
D------------------------------------|

rhythm final (3m:47s)

e-------------|
B-------------|
G-------------|
D-5-5-5--5--7-|
A-5-5-5--5--7-|
D-5-5-5--5--7-|
PM. . .  .


legend(key's)
p=pull off
v=vibrato
(AR)/B/S-[XNº]RB= artificial harmonic with bend and slide to(x)with reverse bend
gs= grace note with slide
Tap to rate this tab
 
# A B C D E F G H I J K L M N O P Q R S T U V W X Y Z