Song name
# A B C D E F G H I J K L M N O P Q R S T U V W X Y Z

Envelopes - It Is The Law tab

-------------------------------------------------------------------------------
                             IT IS THE LAW - Envelopes
-------------------------------------------------------------------------------
Tabbed by: Generally Better
Email: clan_motor_pool@yahoo.com

Tuning: Standard (EADGBe)

e|-------------------------------------------------------------------|x2
B|------13----13----13-----------------------------------------------|
G|---------13----13----13-------12-12-13-----------------------------|
D|------------------------13-13--------------------------------------|
A|-------------------------------------------------------------------|
E|-------------------------------------------------------------------|

e|-------------------------------------------------------------------|
B|------13----13-------14-------13-----------------------------------|
G|---------13----13-12----12-13----13--------------------------------|
D|------------------------------------13-11-10-----------------------|
A|-------------------------------------------------------------------|
E|-------------------------------------------------------------------|

e|-------------------------------------------------------------------|
B|------11-----------------------------------------------------------|
G|---------13-12-13--------------------------------------------------|
D|------------------10--11--13--11--10-------------------------------|
A|-------------------------------------13-11-11-10-11-11-11-11-------|
E|-------------------------------------------------------------------|

e|-------------------------------------------------------------------|
B|-------------------------------------------------------------------|
G|---------------------13----------13--------------------------------|
D|------------10-11-13----13-11-10----10-----------------------------|
A|------13-13--------------------------------------------------------|
E|-------------------------------------------------------------------|

Fantastic song, wonderful band.  Very fun to play.  Enjoy.

| /  slide up
| \  slide down
| h  hammer-on
| p  pull-off
| ~  vibrato
| +  harmonic
| x  Mute note
===============================================================================
Tap to rate this tab
# A B C D E F G H I J K L M N O P Q R S T U V W X Y Z