Song name
# A B C D E F G H I J K L M N O P Q R S T U V W X Y Z

Envy On The Coast - Lapse tab

------------------------------------------------------------------------
		              Lapse - Envy On The Coast 
------------------------------------------------------------------------

Tabbed by: Blake (Love4Fire)
Email: thingslykechemistry@yahoo.com
Feel free to e-mail me if you find something wrong.

Tuning: 1/2 Step Down Eb-Ab-Db-Gb-Bb-Eb

Intro/Verse:
eb|-0------0------0------|
Bb|-1------1------1------|
Gb|-2-x4---0-x4---2-x8---|
Db|-3------2------2------|
Ab|----------------------|
Eb|----------------------|

Transition Into Chorus:
eb|--0--|
Bb|--1--|
Gb|--0--|
Db|--0--|
Ab|--2--|
Eb|--3--|

Chorus:
eb|-0------0------0------0------|
Bb|-1------1------1------1------|
Gb|-2-x8---0-x8---2-x8---0-x8---|
Db|-3------2------2------0------|
Ab|--------3------0------2------|
Eb|----------------------3------|

Transition Back To Verse:
eb|-------------------------3-0-|
Bb|-3/5-5-5-5/3-3/1-3/1-1p0-----|
Gb|-----------------------------|
Db|-----------------------------|
Ab|-----------------------------|
Eb|-----------------------------|

Bridge:
eb|-0------0------0------0------|
Bb|-1------0------1------1------|
Gb|-2-x8---1-x8---2-x8---0-x8---|
Db|-3------2------2------0------|
Ab|---------------0------2------|
Eb|----------------------3------|

End On:
eb|--0--|
Bb|--1--|
Gb|--2--|
Db|--3--|
Ab|--0--|
Eb|-----|

Tap to rate this tab
# A B C D E F G H I J K L M N O P Q R S T U V W X Y Z