Song name
# A B C D E F G H I J K L M N O P Q R S T U V W X Y Z

Envy On The Coast - Gift Of Paralysis tab

The first time i heard this song i fell in LUV with it..this band RULESS!!!! So plz rate 
tab and comment if u have any corrections..i tried my best on this tab and it took a 
here it is!!::

      |2nd time do 6 of these::|
E----x-x-x-x-x-x-x-x-x-x-x-x-x-x---x-x---x-x-x-x---x-x---x--x---------|
B----3-3-3-3-3-3-3-3-3-3-3-3-3-3---2-2---x-x-x-x---x-x---x--x---------|
G----2-2-2-2-2-2-2-2-2-2-2-2-2-2---2-2---x-x-x-x---x-x---x--x---------|
D----x-x-x-x-x-x-x-x-x-x-x-x-x-x---x-x---5-5-5-5---7-7---11-11--------| x2
A----2-2-2-2-2-2-2-2-2-2-2-2-2-2---2-2---7-7-7-7---9-9---12-12--------|
D----x-x-x-x-x-x-x-x-x-x-x-x-x-x---x-x---x-x-x-x---x-x---x--x---------|


                                   |Figure out fingering|
E---x-x-x-x---x-x---x--x-----||-----------2----------------------------|
B---x-x-x-x---x-x---x--x-----||-----------3----------------------------|
G---x-x-x-x---x-x---x--x-----||-----------4----------------------------|
D---5-5-5-5---7-7---11-11----||-------2---2----------------------------|
A---7-7-7-7---9-9---12-12----||-------2---3----------------------------|
D---x-x-x-x---x-x---x--x-----||-------2---2----------------------------|


                                  |Figure out fingering|
E---x-x-x-x---x-x---x--x-----||---------5------------------------------|
B---x-x-x-x---x-x---x--x-----||---------6------------------------------|
G---x-x-x-x---x-x---x--x-----||---------7------------------------------|
D---5-5-5-5---7-7---11-11----||------5--7------------------------------|
A---7-7-7-7---9-9---12-12----||------5--5------------------------------|
D---x-x-x-x---x-x---x--x-----||------5--5------------------------------|


                           (let ring)
E-----5-------2-------5-------2------------------|
B-----6-------3-------6-------3------------------|
G-----7-------4-------7-------4------------------|
D---5-7-----2-2-----5-7-----2-2------------------|
A---5-5-----2-3-----5-5-----2-3------------------|
D---5-5-----2-2-----5-5-----2-2------------------|

E---2--2-2-2-2----------------------------------------------------------|
B---3--3-3-3-3--------------------------------------------2-2-----------|
G---4--4-4-4-4--------------------------------------------2-2-----------|
D---4--4-4-4-4---2--2-2---7--7-7---5--5-5--5-5---0--0-0---2-2-----------|
A---2--2-2-2-2---2--2-2---7--7-7---5--5-5--5-5---0--0-0-----------------|
D---x--x-x-x-x---2--2-2---7--7-7---5--5-5--5-5---0--0-0-----------------|


E---2--2-2-2-2----------------------------------------------------------|
B---3--3-3-3-3-------------------------------------2--2-2-2-2-----------|
G---4--4-4-4-4-------------------------------------2--2-2-2-2-----------|
D---4--4-4-4-4-----2-2----7-7----5-5--5-5----0-0---2--2-2-2-2-----------|
A---2--2-2-2-2-----2-2----7-7----5-5--5-5----0-0------------------------|
D---x--x-x-x-x-----2-2----7-7----5-5--5-5----0-0------------------------|

    (gradually get louder)
E---------------------------------|
B-----------3-3-3-3---------------|
G-----------4-4-4-4---------------|
D---2---2-2-2-2-2-2---------------|
A---2---2-2-3-3-3-3---------------|
D---2---2-2-2-2-2-2---------------|


E----x-x-x-x-x-x---x-x---x-x-x-x---x-x---x--x---------|
B----3-3-3-3-3-3---2-2---x-x-x-x---x-x---x--x---------|
G----2-2-2-2-2-2---2-2---x-x-x-x---x-x---x--x---------|
D----x-x-x-x-x-x---x-x---5-5-5-5---7-7---11-11--------| x3
A----2-2-2-2-2-2---2-2---7-7-7-7---9-9---12-12--------|
D----x-x-x-x-x-x---x-x---x-x-x-x---x-x---x--x---------|


                                 (figure out fingering)
E---x-x-x-x---x-x---x--x-----||-----------2----------------------------|
B---x-x-x-x---x-x---x--x-----||-----------3----------------------------|
G---x-x-x-x---x-x---x--x-----||-----------4----------------------------|
D---5-5-5-5---7-7---11-11----||-------2---2----------------------------|
A---7-7-7-7---9-9---12-12----||-------2---3----------------------------|
D---x-x-x-x---x-x---x--x-----||-------2---2----------------------------|


                                  |Figure out fingering|
E---x-x-x-x---x-x---x--x-----||---------5------------------------------|
B---x-x-x-x---x-x---x--x-----||---------6------------------------------|
G---x-x-x-x---x-x---x--x-----||---------7------------------------------|
D---5-5-5-5---7-7---11-11----||------5--7------------------------------|
A---7-7-7-7---9-9---12-12----||------5--5------------------------------|
D---x-x-x-x---x-x---x--x-----||------5--5------------------------------|


   (figure out fingering)    (let ring)
E-----5-------2-------5-------2------------------|
B-----6-------3-------6-------3------------------|
G-----7-------4-------7-------4------------------|
D---5-7-----2-2-----5-7-----2-2------------------|
A---5-5-----2-3-----5-5-----2-3------------------|
D---5-5-----2-2-----5-5-----2-2------------------|

E---2--2-2-2-2----------------------------------------------------------|
B---3--3-3-3-3--------------------------------------------2-2-----------|
G---4--4-4-4-4--------------------------------------------2-2-----------|
D---4--4-4-4-4---2--2-2---7--7-7---5--5-5--5-5---0--0-0---2-2-----------|
A---2--2-2-2-2---2--2-2---7--7-7---5--5-5--5-5---0--0-0-----------------|
D---x--x-x-x-x---2--2-2---7--7-7---5--5-5--5-5---0--0-0-----------------|


E---2--2-2-2-2----------------------------------------------------------|
B---3--3-3-3-3-------------------------------------2--2-2-2-2-----------|
G---4--4-4-4-4-------------------------------------2--2-2-2-2-----------|
D---4--4-4-4-4-----2-2----7-7----5-5--5-5----0-0---2--2-2-2-2-----------|
A---2--2-2-2-2-----2-2----7-7----5-5--5-5----0-0------------------------|
D---x--x-x-x-x-----2-2----7-7----5-5--5-5----0-0------------------------|

(gradually get louder)        (figure out fingering)
E-----------------------|    |----5---2---0---------|
B-----------3-3-3-3-----|    |----6---3---2---------|
G-----------4-4-4-4-----|    |----7---4---2---------|
D---2---2-2-2-2-2-2-----|    |----7---2---2---------| x2
A---2---2-2-3-3-3-3-----|    |----5---3---0---------|
D---2---2-2-2-2-2-2-----|    |----5---2---x---------|

(fingring)|
E-----5----2-2-2-2-2-2-2---0-0-0-0-0-0-0----5--5-5--5-5-5-5-5--5-5-5-|
B-----6----3-3-3-3-3-3-3---2-2-2-2-2-2-2----5--5-5--5-5-5-5-5--5-5-5-|
G-----7----4-4-4-4-4-4-4---2-2-2-2-2-2-2----7--7-7--7-7-7-7-7--7-7-7-|
D-----7----2-2-2-2-2-2-2---2-2-2-2-2-2-2----7--7-7--7-7-7-7-7--7-7-7-|
A-----5----3-3-3-3-3-3-3---0-0-0-0-0-0-0----5--5-5--5-5-5-5-5--5-5-5-|
D-----5----2-2-2-2-2-2-2---x-x-x-x-x-x-x----5--5-5--5-5-5-5-5--5-5-5-|


E-5--5-5--5-5-5-5-5--5-5-5----x--x-x--x-x-x----x--x-x--x-x-x-x-x-|
B-5--5-5--5-5-5-5-5--5-5-5----x--x-x--x-x-x----x--x-x--x-x-x-x-x-|
G-7--7-7--7-7-7-7-7--7-7-7----7--7-7--7-7-7----7--7-7--7-7-7-7-7-|
D-5--5-5--5-5-5-5-5--5-5-5----0--0-0--0-0-0----4--4-4--4-4-4-4-4-| x3
A-5--5-5--5-5-5-5-5--5-5-5----0--0-0--0-0-0----4--4-4--4-4-4-4-4-|
D-5--5-5--5-5-5-5-5--5-5-5----0--0-0--0-0-0----4--4-4--4-4-4-4-4-|

E--------------------x--x-x-x--x-x----x--x-x-x--x-x--------------|
B--------------------x--x-x-x--x-x----2--2-2-2--2-2--------------|
G---4--4-4-4--4-4----3--3-3-3--3-3----2--2-2-2--2-2--------------|
D---4--4-4-4--4-4----4--4-4-4--4-4----2--2-2-2--2-2--------------|
A---2--2-2-2--2-2----1--1-1-1--1-1----x--x-x-x--x-x--------------|
D---x--x-x-x--x-x----x--x-x-x--x-x----x--x-x-x--x-x--------------|

(fingring)     (let ring and PAUSE)
E-------2--------------------------------------------------------|
B-------3-------------------------------2-2----------------------|
G-------4-------------------------------2-2----------------------|
D-----2-2------5------------5-0--0-0----2-2---xxxx---------------|
A-----2-3------5------------5-0--0-0----------xxxx---------------|
D-----2-2------5------------5-0--0-0----------xxxx---------------|

E---2--2-2-2-2--------------------------------------------------------|
B---3--3-3-3-3-------------------------------------2--2-2-2-2---------|
G---4--4-4-4-4-------------------------------------2--2-2-2-2---------|
D---4--4-4-4-4-----2-2----7-7----5-5--5-5----0-0---2--2-2-2-2---------|x3
A---2--2-2-2-2-----2-2----7-7----5-5--5-5----0-0----------------------|
D---x--x-x-x-x-----2-2----7-7----5-5--5-5----0-0----------------------|


                     (palm muted)
E---5--5-5--5555----x-x-x-x-x-x-x-x---------------|
B---5--5-5--5555----x-x-x-x-x-x-x-x---------------|
G---7--7-7--7777----7-7-7-7-7-7-7-7---------------|
D---5--5-5--5555----x-x-x-x-x-x-x-x---------------|
A---5--5-5--5555----x-x-x-x-x-x-x-x---------------|
D---5--5-5--5555----x-x-x-x-x-x-x-x---------------|

E-5--5--5--5-5-5-5--5-5-5----x--x-x--x-x-x----x--x-x--x-x-x-x-x-|
B-5--5--5--5-5-5-5--5-5-5----x--x-x--x-x-x----x--x-x--x-x-x-x-x-|
G-7--7--7--7-7-7-7--7-7-7----7--7-7--7-7-7----7--7-7--7-7-7-7-7-|
D-5--5--5--5-5-5-5--5-5-5----0--0-0--0-0-0----4--4-4--4-4-4-4-4-| x4
A-5--5--5--5-5-5-5--5-5-5----0--0-0--0-0-0----4--4-4--4-4-4-4-4-|
D-5--5--5--5-5-5-5--5-5-5----0--0-0--0-0-0----4--4-4--4-4-4-4-4-|


      (Let ring)
E-------5-----------|
B-------5-----------|
G-------7-----------|
D-------5-----------|
A-------5-----------|
D-------5-----------|


amazing song,, right??
Tap to rate this tab
# A B C D E F G H I J K L M N O P Q R S T U V W X Y Z