Guitaretab - guitar tabs
Song name
# A B C D E F G H I J K L M N O P Q R S T U V W X Y Z

Envy On The Coast - Starving Your Friends tab

ENVY ON THE COAST
"Starving Your Friends"
Lucy Gray 2008

Tuning: EADGBe

Author's Note:
This is a beautiful song, originally written on piano on the album version and now
out for your enjoyment on guitar. When Ryan plays this song live he usually plugs in and
it on clean with a little delay, so you can play it like that or acoustic sounds just as 
This song is pretty simple, only semi-tricky part is the bridge. Enjoy!
-Seth Halperin

INTRO (4x)                    [let ring]
e-------------------------|--------------|
B-------------------------|--------------|
G---4----3------8---9-----|---9----------|
D---4----4------9---9-----|---7----------|
A---2----4------6---7-----|---7----------|
E--------2----------------|--------------|
Thanks a lot, I've been disadvantaged from the start
Heading straight from the veins, heading straight to my head
Re-routed the blood, to my heart, instead
Re-routed the blood, to my heart, instead....


VERSE (4x)                              [let ring]
e-------------------------------------|--------------|
B-------------------------------------|--------------|
G---4444----3333------8888---9999-----|---9----------|
D---4444----4444------9999---9999-----|---7----------|
A---2222----4444------6666---7777-----|---7----------|
E-----------2222----------------------|--------------|
....I am brain dead, thinking strictly in blues and reds
I'm in enough trouble man, oh man I'm in trouble again
Because everyone's ears are watching me,
And I never ever felt that this would be...
Anything more than a makeshift personal IV


PRE-CHORUS (4x)                             [let ring]
e-----------------------------------------|-------|
B-----------------------------------------|-------|
G-----------------------------------------|---6---|
D-------------4-4-4-4---2-2-2-2-----------|---6---|
A---2-2-2-2---4-4-4-4---2-2-2-2-----------|---4---|
E---4-4-4-4---2-2-2-2---0-0-0-0-----------|-------|
Because I fall three times as hard
If it's from nothing at all
You all seem twice as tall as I will ever be
And I feel terribly small
When my head works to hard
When you think with your chest there's not a thing that you won't see.


CHORUS (4x)                            [let ring 1x]
e--------2222---4444---7777--------|----------------|
B--------2222---4444---7777--------|----------------|
G--------3333---4444---8888--------|--------6-------|
D--------4444---6666---9999--------|---2----6-------|
A--2222--4444---6666---9999--------|---2----4-------|
E--0000--2222---4444---7777--------|---0------------|
Because I'm hardly capable of half the damage I would like to do
I can swear that I don't care but you know I'm too full of shit
To think this through
So would you look at me, I pray to God, but curse too much
To be considered true
I'm just like me, I'm just like me so
Who the hell are you?


Repeat VERSE

Repeat PRE-CHORUS

Repeat CHORUS

[ Tab from: http://www.guitaretab.com/e/envy-on-the-coast/109383.html ]
BRIDGE (2x by itself)
e---------------------------------------------------------|
B---------4--------------------------------0--------------|
G-------6---6----------8b9p8-----------11----11-----------|
D-----4-------4-----6---------------8------------8--------|
A---6-----------6h7------------7/9------------------9/6---|
E---------------------------------------------------------|
(After 2 times)
I know you think you know but these eyes are windows
That shut you out from all the things, that I don't want you to know


BRIDGE (continued 2x)           [let ring]
e---------------4-----|----------------------------------------|
B---------------4-----|----------------------------------------|
G---------3-----4-----|-----3---6------------------------------|
D---------4-----6-----|-----4---6------------------------------|
A---2-----4-----6-----|--2--4---4------------------------------|
E---0-----2-----4-----|--0--2----------------------------------|
And I refuse to tell you one, single secret I own
Because you'll find I'm petrified, of your eyes

CHORUS (4x)                            [let ring 1x]
e--------2222---4444---7777--------|----------------|
B--------2222---4444---7777--------|----------------|
G--------3333---4444---8888--------|--------6-------|
D--------4444---6666---9999--------|---2----6-------|
A--2222--4444---6666---9999--------|---2----4-------|
E--0000--2222---4444---7777--------|---0------------|
Because I'm hardly capable of half the damage I would like to do
I can swear that I don't care but you know I'm too full of shit
To think this through
So would you look at me, I pray to God, but curse too much
To be considered true
I'm just like me, I'm just like me so
Who the hell are you?

LYRICS:

Thanks a lot.
I've been disadvantaged from the start
Heading straight from the veins, heading straight to my head
Re-routed the blood, to my heart, instead
Re-routed the blood, to my heart, instead....

I am braindead,
Thinking in strictly in blues and reds.
Oh, I'm in enough trouble man,
Oh man, I'm in trouble again
Cause everyone's ears are watching me,
But I never, ever felt that this would be
Anything more than a makeshift personal I.V.

(Chorus)
I fall three times as hard
If it's from nothing at all
You all seem twice as tall as I will ever be.

And I feel terribly small
When my head works too hard
When you think with your chest,
There's not a thing that you don't see.

I'm hardly capable of half the damage
That I would like to do
I could swear that I don't care,
But you know I'm too full of shit
To think this through.

So look at me,
I pray to God
But curse too much to be considered true.
I'm just like me,
I'm just like me,
So who the hell are you?
(End of chorus)

I'm but a boy,
Just like the rest of these thieves.
And I borrow phrases from
Dusty, faded, record sleeves

The story is the same,
I've just personalized the name
But if it's all you need,
Then I'd be more than happy to confess my shame'

(Chorus)

I know you think you know,
But these eyelids are windows
That shut you out from all the things
That I don't want you to know.
And I refuse to tell you
One single secret I own.
'Cause you'll find I'm petrified
Of your eyes.

I'm hardly capable of half the damage
That I would like to do.
I could swear that I don't care,
But you know I'm too full of shit
To think this through.

I've read the book,
I prayed to God,
But cursed too much to be considered true.
I'm just like me,
I'm just like me,
So who the hell are you?
Related for Starving Your Friends tab
×
Starving Your Friends