Song name
# A B C D E F G H I J K L M N O P Q R S T U V W X Y Z

Envy On The Coast - Death March On Two Ready tab

not perfect but sound sprety much it, comments welcomed and hope you enjoy. rest of the 
coming soon.

*= natural harmonic(made by fret hand)
|--------------------------------------------|
|--------------------------------------------|
|-xx-5-x-5-x-5-------5~---1/2-5-xx-7---5b~---|
|-xx-5-x-5-x-5--7/-3-5~---1/2-5-xx---7-------|
|-xx-3-x-3-x-3--7/-3-3~---0/0-3-xx-----------|
|--------------------------------------------|

|--------------------------------------------|
|--------------------------------------5*----|
|-2-x-5-x------2----------1/2-5-xx-----5*----|
|-2-x-5-x-7/-3-2----------1/2-3-xx-----------|
|-0-x-3-x-7/-3-0----------0/0-3-xx--3--------|
|------------------------------------3-------|
Tap to rate this tab
# A B C D E F G H I J K L M N O P Q R S T U V W X Y Z