Song name
# A B C D E F G H I J K L M N O P Q R S T U V W X Y Z

Envy On The Coast - Made Of Stone tab

Ghost666-13 tabbed this pretty perfectly but i'd though i would ad the little harmonics 
picking.

|-------------------------|
|--------------------5----|
|--------7*--0---------0--|
|----------0--------------|
|7/9-7---------2/4----4---|
|--0-0---------3/5--------|

|-------------------------|
|--------------------5----|
|--------7*--0---------0--|
|----------0--------------|
|7/9-7---------2/4----4---|
|--0-0---------3/5--------|
Tap to rate this tab
 
# A B C D E F G H I J K L M N O P Q R S T U V W X Y Z