Envy On The Coast - Death March On Two Ready tab

-------------------------------------------------------------------------------
	Death March On Two, Ready? - Envy On The Coast
-------------------------------------------------------------------------------
Tabbed by: Nathan Cornell


Tuning: Drop D

e|-----------------------------------------10--------------------------------|
B|---7--x--7--x----------------------/10-------------------------------------|
G|---8--x--8--x------------------/10-----10----------------------------------|
D|---8--x--8--x--3-3-/5--5---------------------------------------------------|
A|---6--x--6--x--3-3-/5--5---------------------------------------------------|
E|---------------3-3-/5--5---------------------------------------------------|

e|---------------------------------------------------------------------------|
B|--7--x--7------------------------------------------------------------------|
G|--8--x--8------------------------------------------------------------------|
D|--8--x--8----3-3-h5--0~-------------0--------------------------------------|
A|--6--x--6----3-3-h5--0~-----1---/3-----------------------------------------|
E|-------------3-3-h5--0~---------------0--3+b-------------------------------|



Pleas Rate!



************************************

| /   slide up
| \   slide down
| h   hammer-on
| p   pull-off
| ~   vibrato
| +   harmonic
| x   Mute note
| b   Bend
| pb  Pre-bend
| br  Bend release
| pbr Pre-bend release
| brb Bend release bend

************************************
Tap to rate this tab
 
# A B C D E F G H I J K L M N O P Q R S T U V W X Y Z