Envy On The Coast - Like I Do tab

Like I Do

EOTC

Intro and Pre-Chorus.


----------12--10------------7--------------------12--10------------7-10----------|
------------10--(10)-----------10---(10/11) x2-----10--(10)----------------------|
11---9----------------9/7-7------- -(10/11)-----------------9/7-7----------------|
---------------------------------------------------------------------------------|
---------------------------------------------------------------------------------|
---------------------------------------------------------------------------------|

chorus

-----------------------------------------------------------------|
----12---12---12---12---12---------------------------------------|
--12---12---12---11---11---11---9~ -------7---9----11------------|         repeat (2x)
--------------------------------------7h9------------------------|
-----------------------------------------------------------------|
-----------------------------------------------------------------|

-----------------|
---------9-9h10--|
--12-------------|          end of chorus (Lady, this was meant to be)
------9----------|
-----------------|
-----------------|

Outro

-----------10-----14--12~------10-----14--15---------10-----14--12-----------|
--------------12------------------12---------15---------12-------------------|
----7/9----------------------------------------------------------------------|
-----------------------------------------------------------------------------|
-----------------------------------------------------------------------------|
-----------------------------------------------------------------------------|

----10------14--15---19~------10------14--12------10------14--15-------------|
--------12------------------------12------------------12----------15---------|
-----------------------------------------------------------------------------|
-----------------------------------------------------------------------------|
-----------------------------------------------------------------------------|
-----------------------------------------------------------------------------|

---10----14--12----17------------|
------12-------------------------|
---------------------------------|
---------------------------------|
---------------------------------|
---------------------------------|

End

----15--14--15--14----------|
--------------------15b-----|
----------------------------|
----------------------------|
----------------------------|
----------------------------|

Theres more to the Outro but its basically the same repeated. Just play around with it.


This is one of my first tabs and my first tab i put online... so excuse the fudged up 
the notes are good thats all that matters.


- cim leah
Tap to rate this tab
 
# A B C D E F G H I J K L M N O P Q R S T U V W X Y Z