Song name
# A B C D E F G H I J K L M N O P Q R S T U V W X Y Z

Envy On The Coast - Death March On Two Ready tab

Death March on Two, Ready?
Envy on the Coast
Guitar Tuning: Drop D standard

Intro and Beginning/Chorus (theres more muted string strumming going on in the 
clean intro but yall can figure that out...)

|-----------------------------------|
|-----------------------------------|
|-xx-7-x-7-x----------xx----7--5b---|
|-xx-7-x-7-x-3-3/5-5--xx-5/7--5-----|
|-xx-5-x-5-x-3-3/5-5--xx------------|
|------------3-3/5-5----------------|

|------------------------------------|
|------------------------------------|
|-xx-7-x-7-x----------xx-------------|
|-xx-7-x-7-x-3-3/5-0--xx-3/5---------|
|-xx-5-x-5-x-3-3/5-0--xx----5--------|
|------------3-3/5-0----------0-3b---| 
- The 3b can be played as a pinch harmonic on the 3rd fret instead... if you want.

Im not honestly sure how the verses go (if there is even guitar present) but I like to play:

|--------------|---------------|---------------|-------------|
|--------------|---------------|---------------|-------------|
|-7------------|-5-------------|-7-------------|-(7)---------|
|-5------------|-3-------------|-5-------------|-(5)---------|
|-5------------|-3-------------|-5-------------|-(5)---------|
|-5------------|-3-------------|-5-------------|-(5)---------|

|--------------|---------------|---------------|-------------|
|--------------|---------------|---------------|-----------5*|
|-7------------|-5-------------|-2-------------|-(2)-------5*|
|-5------------|-3-------------|-0-------------|-(0)---------|
|-5------------|-3-------------|-0-------------|-(0)---------|
|-5------------|-3-------------|-0-------------|-(0)---------|

Bridge/Breakdown/Whathaveyou
-Goes through the chorus once like usual, then it ends like this the second time:

|-----------------------------------|
|-----------------------------------|
|-xx-7-x-7-x----------xx----7--5b---|
|-xx-7-x-7-x-3-3/5-5--xx-5/7--5-----|
|-xx-5-x-5-x-3-3/5-5--xx------------|
|------------3-3/5-5----------------|

|----------------------------|
|----------------------------|
|-xx-7-x-7-x-----------------|
|-xx-7-x-7-x-3-3/5-2-2-2-----|
|-xx-5-x-5-x-3-3/5-2-2-2-----|
|------------3-3/5-2-2-2-----| 

- After the three strums on the on the 2nd fret, it changes to 3/4 time for the breakdown

|-----------|-----------|-------------|-------------|------------|
|-----------|-----------|-------------|-------------|------------|
|-------5---|-------5---|-7-7-7-7-7-7-|-7-7-7-7-7-7-|-7-7-7------| 2x
|-3/5-3---7-|-3/5-3---7-|-------------|-------------|------------|     
|-----------|-----------|-5-5-5-5-5-5-|-5-5-5-5-5-5-|-5-5-5------|
|-----------|-----------|-------------|-------------|------------|

|-----------|-----------|-----------|----------|
|-----------|-----------|-----------|----------|
|-----------|-----------|-----------|----------|
|-33-3-33-3-|-33-3-33-3-|-55-5-55-5-|-5--------|
|-33-3-33-3-|-33-3-33-3-|-55-5-55-5-|-5--------|
|-33-3-33-3-|-33-3-33-3-|-55-5-55-5-|-5--------|
  dd u  dd u...

That's the whole song, youll just have to figure out which parts go where and for 
how many repetitions.
Enjoy!!
Tap to rate this tab
 
# A B C D E F G H I J K L M N O P Q R S T U V W X Y Z