Song name
# A B C D E F G H I J K L M N O P Q R S T U V W X Y Z

Envy On The Coast - Like I Do tab

repeat this during every verse
----------12--10-----------------------7-------------------------------|
--------------10------------------------------10------12h14----12h14---|
-------------------------9--7-------------------------12h14----12h14---|
-----------------------------------------------------------------------|
-----------------------------------------------------------------------|
-----------------------------------------------------------------------|

----12--10-------------------7--------10--------------|
--------10----------------------------------------12--|
------------------9--7----------------------------12--|
------------------------------------------------------|
------------------------------------------------------|
------------------------------------------------------|

chorus (play twice)

--------------------------------------------------------------------|
----12-12-12----12-12-12--------------------------------------------|
----12-12-12-12-11-11-11-11---9----------------7------9------11-----|
--------------------------------------7h9---------------------------|
--------------------------------------------------------------------|
--------------------------------------------------------------------|

after second time playing chorus (lady, this was meant to be)

|----------------|
|-----------9h10-|
|-12-------------|
|------9---------|
|----------------|
|----------------|


ending

-10-----14-12----10------14--15-------10-----14-12------10-----14-15-19---|
----12---------------12------15----------12----------------12-------------|
--------------------------------------------------------------------------|
--------------------------------------------------------------------------|
--------------------------------------------------------------------------|
--------------------------------------------------------------------------|

after ^ played alternate to this

-10----14-12-----10-----14-15-17-------17-19------------------------------|
----12--------------12----------------------17----------------------------|
--------------------------------------------------------------------------|
--------------------------------------------------------------------------|
--------------------------------------------------------------------------|
--------------------------------------------------------------------------|

alternate between each ending two times

end at

---15---14---15--14--------------|
---------------------15----------|
---------------------------------|
---------------------------------|
---------------------------------|
---------------------------------|
Tap to rate this tab
 
# A B C D E F G H I J K L M N O P Q R S T U V W X Y Z