Guitaretab - guitar tabs
Song name
# A B C D E F G H I J K L M N O P Q R S T U V W X Y Z

Envy On The Coast - Tell Them That Shes Not Scared tab

Intro slight distortion
								Ill hold your tears‘K
e|-----------------------------------------------------------------------------------------|
b|-----------------------------------------------------------------------------------------|
g|-----------------------------------------------------------------------------------------|X3
d|--------------10---------------------10-------------------10----------7------------9-----|
A|---------7-------------------------8--------------------7----------5-----5------5-----5--|
D|-----0------------------------0---------------------7-----------5------------5-----------|


e|--------------------------------------------------------------------------------------|
b|--------------------------------------------------------------------------------------|
g|--------------------------------------------------------------------------------------|
d|------10---10-----5----5----5---------3--3-----3--3--3------3--3------------„³---------|
A|-----10----10-----5----5----5---------3--3-----3--3--3------3--3--------------„³-------|
D|-----10----10-----5----5----5---------3--3-----3--3--3------3--3--------------„³-------|
[ Tab from: http://www.guitaretab.com/e/envy-on-the-coast/98246.html ]
e|-----------------------------------------------------------------------------------------------|
b|-----------------------------------------------------------------------------------------------|
g|-----------------------------------------------------------------------------------------------|
d|------10---10-----5----5----5---------7-7---5----777--7--7----5---5---------------„³------------|
A|-----10----10-----5----5----5---------7-7---5----777--7--7----5---5-------------------„³--------|
D|-----10----10-----5----5----5---------7-7---5----777--7--7----5---5------------------„³---------|


Lead


e|--------------------------------|
b|--------------------------------|
g|------------12-------7-------9--|
d|----10--------------------------|      x4
A|--------------------------------|
D|--------------------------------|


verse
e|------------------------------------------|
b|------------------------------------------|
g|------------------------------------------|
d|-----3-3-3-3-3-3-3---------5-5-5-5-5-5-5--|
A|-----3-3-3-3-3-3-3---------5-5-5-5-5-5-5--|
D|-----3-3-3-3-3-3-3---------5-5-5-5-5-5-5--|

chorus

e|--------------------------------------------------------------------------------------|
b|--------------------------------------------------------------------------------------|
g|--------------------------------------------------------------------------------------|
d|------10---10-----5----5----5---------3--3-----3--3--3------3--3-------------„³--------|
A|-----10----10-----5----5----5---------3--3-----3--3--3------3--3--------------„³-------|
D|-----10----10-----5----5----5---------3--3-----3--3--3------3--3--------------„³-------|

e|---------------------------------------------------------------------------------------------|
b|---------------------------------------------------------------------------------------------|
g|---------------------------------------------------------------------------------------------|
d|-----10----10-----5----5----5--------7-7---5---777--7--7----5---5----------------„³-----------|
A|-----10----10-----5----5----5--------7-7---5---777--7--7----5---5-------------------„³--------|
D|-----10----10-----5----5----5--------7-7---5---777--7--7----5---5------------------„³---------|
Related for Tell Them That Shes Not Scared tab
Advertisement will be closed in 10 seconds