Song name
# A B C D E F G H I J K L M N O P Q R S T U V W X Y Z

Envy On The Coast - Because All Suffering Is Sweet To Me tab

-------------------------------------------------------------------------------
	     Because All Suffering Is Sweet To Me - Envy On The Coast
-------------------------------------------------------------------------------
Tabbed by: Becca
Email:

Tuning: Standard

e|-------------------------------|-----------------------------------|
B|-------------------------------|-----------------------------------|
G|-------2------2------2------2--|-------2------2------4------4------|
D|----3------3------3------3-----|----5------5------6------6---------|
A|-------------------------------|-----------------------------------|
E|-------------------------------|-----------------------------------|

e|-------------------------------|-----------------------------------|
B|-------------------------------|------5------5---------------------|
G|------5------5------5------5---|--------------------5------5-------|
D|---7------7------7------7------|-----------------------------------|
A|-------------------------------|---5------5------7------7----------|
E|-------------------------------|-----------------------------------|

e|-------------------------------|-----------------------------------|
B|-------------------------------|-----------------------------------|
G|-------------------------------|-----------------------------------|
D|------7------7------7------7---|-------7------7------7------7------|
A|---8------8------8------8------|----8------8------8------8---------|
E|-------------------------------|-----------------------------------|

e|-------------------------------|-----------------------------------|
B|-------------------------------|-------9-------9-------9-------9---|
G|-------------------------------|----10------10------10------10-----|
D|------2------2------2------2---|-----------------------------------|
A|---3------3------3------3------|-----------------------------------|
E|-------------------------------|-----------------------------------|

Repeat



| /  slide up
| \  slide down
| h  hammer-on
| p  pull-off
| ~  vibrato
| +  harmonic
| x  Mute note
===============================================================================
Tap to rate this tab
# A B C D E F G H I J K L M N O P Q R S T U V W X Y Z