Song name
# A B C D E F G H I J K L M N O P Q R S T U V W X Y Z

Envy On The Coast - Tell Them That Shes Not Scared Acoustic tab

Song: "Tell Them That She's Not Scared"
Band: Envy On The Coast
Tabbed by: Seth Halperin
           warped240@yahoo.com
Author's Note: This is the acoustic version of "Tell Them That She's Not Scared." It's 
a half step lower than the album version. This is a beautiful song by an amazing band, so enjoy.

Tuning: (C#) Db-Ab-Db-Gb-Bb-Eb

Intro
eb-----------------------------------------------------|
Bb-----------------------------------------------------|
Gb-----------------------------------------------------|
Db-------10-----10------10-----------7----------9------|
Ab-----7------8------7------------5----5-----5----5----|
Db---0------0------7---------7/5----------5------------|
"I'll hold your tears as a ransom, within the palm of my hand..."

eb-----------------------------------------------------|
Bb-----------------------------------------------------|
Gb-----------------------------------------------------|
Db-------10-----10------10-----7-7-7-7-----------------|
Ab-----7------8------7---------5-5-5-5-----------------|
Db---0------0------7-----------5-5-5-5-----------------|
"And tell you once again, don't tell me that you're scared"


F  Am  G   (2x)


Am  (let ring)                                       F
"Wake wake wake her......... from this sea of white linens and
G                                    Am
extract the drugs from her dreams. And sew her seems
                 Dm                      F          C5
with deli-cate-ness cause' beneath her chest sits the heart that
Am                               F            G
I live for, you'd kill for, the angels would die for
Am                                    Dm              F          C5
With a subtle wink, and a flutter of wings they whispered, to whisper


eb-----------------------------------------------------|
Bb-----------------------------------------------------|
Gb-----------------------------------------------------|
Db-------10-----10------10-----------7----------9------|
Ab-----7------8------7------------5----5-----5----5----|
Db---0------0------7---------7/5----------5------------|
"I'll hold your tears as a ransom, within the palm of my hand..."

eb-----------------------------------------------------|
Bb-----------------------------------------------------|
Gb-----------------------------------------------------|
Db-------10-----10------10-----7-7-7-7-----------------|
Ab-----7------8------7---------5-5-5-5-----------------|
Db---0------0------7-----------5-5-5-5-----------------|
"And tell you once again, don't tell me that you're scared"


F                                                        Am
"Alert the sawbones, tell them that she's not scared, got and
                             G                   F
army of saints armed with her prayers. Wake the angels tell them
                        Am                       G
that she's not scared, she won't be taking the next flight out of here."


Am (2x)


Am (let ring)....
"So with a relic in her right hand....
                         F                       G
She rushes to the front lines stricken by the wounds across her chest
Am                                               Dm
The angel swears she's blessed with this medical test that unlocks the
F              C5               Am                          F
gates to the place that we live for, you'd kill for, the angels
       G           Am                               Dm           F
would die for. With a subtle wink and a mother's instinct she whispered,
   C5
to whisper....


eb-----------------------------------------------------|
Bb-----------------------------------------------------|
Gb-----------------------------------------------------|
Db-------10-----10------10-----------7----------9------|
Ab-----7------8------7------------5----5-----5----5----|
Db---0------0------7---------7/5----------5------------|
"I'll hold your tears as a ransom, within the palm of my hand..."

eb-----------------------------------------------------|
Bb-----------------------------------------------------|
Gb-----------------------------------------------------|
Db-------10-----10------10-----7-7-7-7-----------------|
Ab-----7------8------7---------5-5-5-5-----------------|
Db---0------0------7-----------5-5-5-5-----------------|
"And tell you once again, don't tell me that you're scared"


F                                                        Am
"Alert the sawbones, tell them that she's not scared, got and
                             G                   F
army of saints armed with her prayers. Wake the angels tell them
                        Am                       G
that she's not scared, she won't be taking the next flight out of here....."


Bridge  (4x)
eb-------------------------------------------------------------------|
Bb---------------------10--10---10--10----8-8-8-8h10-10-10--8-8-8----|
Gb---12--12--12--12----9----9---9---9-----9-9-9-9--9--9--9--9-9-9----|
Db---10--10--10--10----10--10---10--10----0-0-0----------------------|
Ab---12--12--12--12----8----8---8---8--------------------------------|
Db-------------------------------------------------------------------|

2x
eb------------------------------------------|
Bb-----------10----8-8-8-8h10-10-10--8-8-8--|
Gb---12------9-----9-9-9-9--9--9--9--9-9-9--|
Db---10------10----0-0-0--------------------|
Ab---12------8------------------------------|
Db------------------------------------------|
"The angels dressed for the wake, but she sent them home, she sent
them home.
Now with her hands full of bullet shells, now with her
hands full of bullet shells."

F                                                        Am
"Alert the sawbones, tell them that she's not scared, got and
                             G
army of saints armed with her prayers.............."


F                                                        Am
"Alert the sawbones, tell them that she's not scared, got and
                             G                   F
army of saints armed with her prayers. Wake the angels tell them
                        Am                       G
that she's not scared, she won't be taking the next flight out of here."
Tap to rate this tab
# A B C D E F G H I J K L M N O P Q R S T U V W X Y Z