Song name
# A B C D E F G H I J K L M N O P Q R S T U V W X Y Z

Envy The Enemy - Everybody Makes Sacrifices tab

Help us improve GuitareTab! Take a short survey!
-------------------------------------------------------------------------------
   Everybody Makes Sacrifices  Envy The Enemy
-------------------------------------------------------------------------------
www.myspace.com/envytheenemy

Tabbed by: Blythe Cordova (Guitarist from Envy the Enemy)
Email:envytheenemyband@hotmail.com

Tuning: Drop C
210 bpm

Only doing 1 guitar, the 2nd guitar is pretty basic you can pick out the rhythym easy, 
this is
for any guitarists that we may or may not pick up in the future, so its for learning 
but
 Im tabbing this out from scratch and it fuckin blows so Im just putting it on the net 
I never
have to do it again Have Fun!!!

(Verse)
D|--------------------------------------------------------------------------------------|
A|--------------------------------------------------------------------------------------|
F|--------------------------------------------------------------------------------------|
C|----------------------------------------------------------7p5-------------------------|
G|-8-----5h7-----8-----8/10-----8-------------5h8--------5h8---8p5--------5h7h8/10\8----|
C|---(0)-----(0)---(0)------(0)---(0)-(0)--5h7----(8)-(8)----------5h7h8----------------|

D|------------------------------------------------------------------------------------------|
A|------------------------------------------------------------------------------------------|
F|------------------------------------------------------------------------------------------|
C|-----------------------------------------------------8----------8----------5-----------5--|
G|-8----5h7-----8-----8/10-----8------------5h8--------8----------8----------5-----------5--|
C|---(0)-----(0)---(0)-----(0)--(0)-(0)-5h7----(8)-(8)-8--(8)-(8)-8--(5)-(5)-5---(5)-(5)-5--|

D|--------------------------------------------------------------------------------------|
A|--------------------------------------------------------------------------------------|
F|--------------------------------------------------------------------------------------|
C|----------------------------------------------------------7p5-------------------------|
G|-8-----5h7-----8-----8/10-----8-------------5h8--------5h8---8p5--------5h7h8/10\8----|
C|---(0)-----(0)---(0)------(0)---(0)-(0)--5h7----(8)-(8)----------5h7h8----------------|

D|------------------------------------------------------------------------------------------|
A|------------------------------------------------------------------------------------------|
F|------------------------------------------------------------------------------------------|
C|-----------------------------------------------------8----------8----------5-----------5--|
G|-8----5h7-----8-----8/10-----8------------5h8--------8----------8----------5-----------5--|
C|---(0)-----(0)---(0)-----(0)--(0)-(0)-5h7----(8)-(8)-8--(8)-(8)-8--(5)-(5)-5---(5)-(5)-5--|

D|-----------------------------------------------------------------------|
A|-----------------------------------------------------------------------|
F|-----------------------------------------------------------------------|
C|------------8-------------8---------------3--------------2-------------|
G|------------8-------------8---------------3--------------3-------------|
C|----(8)-(8)-8----(8)-(8)-8-------(3)-(3)-3------(2)-(2)-2-------------|

(Bridge) x8     (On the 4th time dont play the last 4 open palm mutes, we pause out)
D|-------------------------------------------------------------------------|
A|-------------------------------------------------------------------------|
F|-------------------------------------------------------------------------|
C|---------8---------7-------7p3-----3p0-----------------------------------|
G|---------8---------7-------7p3-----3p0-(0)-(0)-(0)-(0)-------------------|
C|-(0)-(5)-8-(0)-(5)-7---(0)-7p3-(0)-3p0(0)-(0)-(0)-(0)-------------------|

Breakdown 1 x3 (Alternate every 2 opens for the 1st 2 times we go through it, then we 
come in
 and play every note and play twice more)

D|------------------------------------------------------------------------------------|
A|------------------------------------------------------------------------------------|
F|------------------------------------------------------------------------------------|
C|---------------------------------------------------------------------------0--------|
G|--(0)-(0)-----(0)-(0)---(0)-(0)-----(0)-(0)-------------(0)-(0)--(0)-(0)---0--------|
C|--(0)-(0)-----(0)-(0)---(0)-(0)-----(0)-(0)-------------(0)-(0)--(0)-(0)---0--------|

On The 4th Time Through This B-Down Bust This One Out
D|-------------------------------------------------------------------------------------------|
A|---------------------------------------(--Alternate------Guitars-----Here----------------)-|
F|-------------------------------------------------------------------------------------------|
C|-------------------------------------------------------------------------------------------|
G|-(0)-(0)--(0)-(0)--(0)-(0)--(0)-(0)----(0)-(0)-(0)-(0)-(0)-(0)-----(0)-(0)-(0)-(0)-(0)-(0)-|
C|-(0)-(0)--(0)-(0)--(0)-(0)--(0)-(0)----(0)-(0)-(0)-(0)-(0)-(0)-----(0)-(0)-(0)-(0)-(0)-(0)-|

Breakdown Transition (Cut off the last chord)
D|---------------------------------------------------------|
A|---10-----------15-----------------15--------------------|
F|---x------------x------------------x---------------------|
C|---8------------12-----------------12--------------------|
G|---0------------0------------------0---------------------|
C|---0-----------0------------------0---------------------|


Breakdown 2  (Play it 4 Times but on the last time only play the first half and one palm 
open
 before the chorus)
D|---------------------------------------------------------------------------------|
A|---------------------------------------------------------------------------------|
F|---------------------------------------------------------------------------------|
C|--------------------------------------------0-----0-----0------------------------|
G|-------(0)-(0)-(0)-(0)-(0)-----(0)-(0)-(0)-0-(0)-0-(0)-0------------------------|
C|-------(0)-(0)-(0)-(0)-(0)-----(0)-(0)-(0)-0-(0)-0-(0)-0------------------------|

Short Transition Into Chorus
D|----------------------------------------------------------------------|
A|----------------------------------------------------------------------|
F|----------------------------------------------------------------------|
C|-----5/8p7-7-7-5h7-5\3------------------------------------------------|
G|----------------------------------------------------------------------|
C|---------------------------------------------------------------------|

Chorus
D|---------------------------------------------------------------------------|
A|---------------------------------------------------------------------------|
F|---------------------------------------------------------------------------|
C|-----------5h7-5-------------------------------5h7-5---8/10-8-7-7h8p7------|
G|---------5---------8-7-7h8--8-8p7-5h7-------5--------8----------------10\8-|
C|---5/8-----------------------------------0--------------------------------|

D|-----------------------------------------------------------------------|
A|-----------------------------------------------------------------------|
F|-----------------------------------------------------------------------|
C|-----------5h7-5-------------------------------------------------------|
G|---------5---------8-7-7h8--8-8p7-5h7--8p5p0h5h8p5p0h5h8p5p0h5h8p5p0h5-|
C|-------8--------------------------------------------------------------|

D|--------------------------------------------------------------------|
A|--------------------------------------------------------------------|
F|--------------------------------------------------------------------|
C|--------------------------------------------------------------------|
G|-------10p7p3h3h7h10p7p3h3h7h10p7p3h3h7h10p7p3h7--------------------|
C|--------------------------------------------------------------------|

D|---------------------------------------------------------------------------|
A|---------------------------------------------------------------------------|
F|---------------------------------------------------------------------------|
C|-----------5h7-5-------------------------------5h7-5---8/10-8-7-7h8p7------|
G|---------5---------8-7-7h8--8-8p7-5h7-------5--------8----------------10\8-|
C|---5/8-----------------------------------0--------------------------------|

D|------------------------------------------------------------------------------|
A|------------------------------------------------------------------------------|
F|------------------------------------------------------------------------------|
C|-----------5h7-5--------------------------------------------------------------|
G|---------5---------8-7-7h8--8-8p7-5h7----(5) eight times----(8) sixteen times-|
C|------8----------------------------------------------------------------------|

 Breakdown 3

D|----------------------------------------------------------------|
A|----------------------------------------------------------------|
F|----------------------------------------------------------------|
C|--------------------------0-------------------------------------|    X3
G|----(0)---(0)-(0)-(0)-(0)-0-------------------------------------|
C|----(0)---(0)-(0)-(0)-(0)-0-------------------------------------|
Alternate parts on the last 6 open palm mutes on this part
D|------------------------------------------------------------------|
A|------------------------------------------------------------------|
F|------------------------------------------------------------------|
C|------------------------------------------------------------------|
G|----(0)---(0)-(0)-(0)-(0)-----(0)-(0)-(0)-----(0)-(0)-(0)---------|
C|----(0)---(0)-(0)-(0)-(0)-----(0)-(0)-(0)-----(0)-(0)-(0)---------|


D|-------------------------------------------------------------------|
A|-------------------------------------------------------------------|
F|-------------------------------------------------------------------|
C|-------------------------------------------------------------------|    X2
G|----(1)---(1)-(1)-(1)-(1)-(1)--------------------------------------|
C|----(1)---(1)-(1)-(1)-(1)-(1)--------------------------------------|

D|----------------------------------------------------------------|
A|----------------------------------------------------------------|
F|----------------------------------------------------------------|
C|--------------------------0-------------------------------------|
G|----(0)---(0)-(0)-(0)-(0)-0-------------------------------------|
C|----(0)---(0)-(0)-(0)-(0)-0-------------------------------------|

D|--------------------------------------------------------------------------------------|
A|--------------------------------------------------------------------------------------|
F|--------------------------------------------------------------------------------------|
C|---------------------------------------------------------0-(let ring out)-------------|
G|-(0)---(0)-(0)-(0)-(0)-----(0)-(0)-(0)-----(0)-(0)-(0)---0-(let ring out)-------------|
C|-(0)---(0)-(0)-(0)-(0)-----(0)-(0)-(0)-----(0)-(0)-(0)---0-(let ring out)-------------|

Order of Appearance!!!
Verse 1
Bridge
Verse 2
B-Down 1
B-Down Transition
B-Down 2
Chorus Transition
Chorus
Verse
B-Down 3

| /  slide up
| \  slide down
| h  hammer-on
| p  pull-off
| ~  vibrato
| +  harmonic
| x  Mute note
|( ) Palm Mute
===============================================================================
Related for Everybody Makes Sacrifices tab