Song name
# A B C D E F G H I J K L M N O P Q R S T U V W X Y Z

Envy - Am I Wrong tab

Hello!
This is my first tab, so it's nothing advanced.
I couldn't find this song here so I thought I'd add it.
As this is only the notes, you'll have to figure out the tempo yourself.

E|--8-------4-------------6--------
A|----10------6---8---------8------
D|-------10-----6---10--------8----
G|---------------------10-------7--
B|--------------------------------6
E|---------------------------------

Alternative: 

E|--------1-------------3---------|
A|--0-------3---------------------|
D|----2-----------0-------0-------|
G|------2-----2-----2-------0-----|
B|--------------------3-------0h3-|
E|--------------------------------|
Tap to rate this tab
# A B C D E F G H I J K L M N O P Q R S T U V W X Y Z