Song name
# A B C D E F G H I J K L M N O P Q R S T U V W X Y Z

Envy - Am I Wrong chords

Highlighted       Show chord diagrams
Here are the chords:
    
    Cm        G#        [ch]Fm/C[/ch]     [ch]A#/Bb[/ch]
 
e|---8---------4---------8--------6--------------------|
B|---8---------4---------9--------6--------------------|
G|---8---------5---------10-------7--------------------|
D|---10--------6---------10-------8--------------------|
A|---10--------6---------8--------8--------------------|
E|---8---------4--------(8)-------6--------------------|

(For intro check the bottom!!)

I play it like this:

D - down strum

U- up strum

 
 
e|-------8---------4---------8--------6--------------------|
B|-------8---------4---------9--------6--------------------|
G|-------8---------5---------10-------7--------------------|
D|-------10--------6---------10-------8--------------------|
A|-----10--------6---------8--------8----------------------|
E|---8---------4--------(8)-------6------------------------|
 
[Verse 1: Vincent]
(Listen and you will get it, but it's pretty fast between Cm and G#  and Fm/c to A#/Bb)
     Cm  G#    [ch]Fm/C[/ch]  [ch]A#/Bb[/ch]     Cm  G#     [ch]Fm/C[/ch]  [ch]A#/Bb[/ch]
Am I wrong for thinking out the box from where I stay?
     Cm  G#    [ch]Fm/C[/ch]  [ch]A#/Bb[/ch]     Cm  G#     [ch]Fm/C[/ch]  [ch]A#/Bb[/ch]
Am I wrong for saying that I'll choose another way?
     Cm  G#    [ch]Fm/C[/ch]  [ch]A#/Bb[/ch]     Cm  G#     [ch]Fm/C[/ch]  [ch]A#/Bb[/ch]
I ain't trying to do what everybody else doing
     Cm  G#    [ch]Fm/C[/ch]  [ch]A#/Bb[/ch]     Cm  G#     [ch]Fm/C[/ch]  [ch]A#/Bb[/ch]
Just cause everybody doing what they all do
     Cm  G#    [ch]Fm/C[/ch]  [ch]A#/Bb[/ch]     Cm  G#     [ch]Fm/C[/ch]  [ch]A#/Bb[/ch]
If one thing I know, I'll fall but I'll grow
     Cm  G#    [ch]Fm/C[/ch]  [ch]A#/Bb[/ch]     Cm  G#     [ch]Fm/C[/ch]  [ch]A#/Bb[/ch]                               
(Repeat throughout the entire song!
I'm walking down this road of mine, this road that I call home

[Hook: Vincent]
So am I wrong for thinking that we could be something for real?
Now am I wrong for trying to reach the things that I can't see?
But that's just how I feel, that's just how I feel
That's just how I feel trying to reach the things that I can't see

[Verse 2: Nico]
Am I tripping for having a vision?
My prediction; I'mma be on the top of the world
Hope you, hope you don't look back, always do what you decide
Don't let them control your life, that's just how I feel
Fight for yours and don't let go, don't let them compare you, no
Don't worry, you're not alone, that's just how we feel

[Hook]

[Bridge: Nico]
If you tell me I'm wrong, wrong
I don't wanna be right, right
If you tell me I'm wrong, wrong
I don't wanna be right





 INTRO INTRO INTRO INTRO INTRO INTRO (could also be played throughout the 
song...kinda your decision)

e|----------------------|-------------------------------|
B|----------------------|---------------------6---------|
G|----------------------|------10-----------7-----------|
D|-------10--------6----|----10-----------8-------------|
A|-----10--------6------|--8------------8---------------|
E|---8---------4--------|-------------6-----------------|
   Ring. stop.  ring. stop. ring. stop. ring.
Tap to rate this tab
# A B C D E F G H I J K L M N O P Q R S T U V W X Y Z