Song name
# A B C D E F G H I J K L M N O P Q R S T U V W X Y Z

Envy - Color Of Fetters tab

This is "Color of Fetters" by Envy, the Japanese band.
There are two guitar parts, and they are almost exactly the same. 
E  :----------------|----------------|----------------|----------------|
B  :----------------|----------------|----------------|----------------|
G  :----5---5-------|5---5-------5---|5-------5---5---|----5---5-------|
D  :--3---3---3---3-|--3---3---3---3-|--3---3---3---3-|--3---3---3---3-|
A  :0-----------0---|--------5-------|----5-----------|----------------|
E  :----------------|----------------|----------------|3-----------3---|

E  :----------------|----------------|----------------|----------------|
B  :----------------|------------6---|6-------5---5---|----------------|
G  :----5---5-------|5---5-----------|----------------|----5---5-------|
D  :--3---3---3---3-|--3---3---3---3-|--3---3---3---3-|--3---3---3---3-|
A  :0-----------0---|--------5-------|----5-----------|----------------|
E  :----------------|----------------|----------------|3-----------3---|

=============================================================================

E  :----------------|----------------|
B  :----------------|----------------|
G  :5---5-------5---|5-------6---6---|
D  :--3---3---3---3-|--3---3---3---3-|
A  :--------3-------|----4-----------|
E  :----------------|----------------|

E  :----------------|----------------|
B  :----------------|----------------|
G  :5---5-------5---|5-------6---6---|
D  :--3---3---3---3-|--3---3---3---3-|
A  :--------3-------|----4-----------|
E  :----------------|----------------|
Tap to rate this tab
# A B C D E F G H I J K L M N O P Q R S T U V W X Y Z