Song name
# A B C D E F G H I J K L M N O P Q R S T U V W X Y Z

Enya - Only Time tab

Only Time by Enya

Chords
   Eb   Cm   Ab   Bb   F#   C#    B
e|--3----3----4----1----2----1----2-
B|--4----1----1----3----2----2----4-
G|--3----0----1----3----3----1----4-
D|--1----1----1----3----4----3----4-
A|----------------------------------
E|----------------------------------

Intro
   Eb      (repeat 4x)    
e|---------3----------|
B|-----4-------4------|
G|---3---3---3---3-- *|
D|-1---------------- *|
A|--------------------|
E|--------------------|    

Verse
   Eb                 Cm                Ab                Eb
e|----------3-------|---------3-------|---------4-------|---------3--------|
B|------4-------4---|-----1-------1---|-----1-------1---|-----4-------4----|
G|*---3---3---3---3-|---0---0---0---0-|---1---1---1---1-|---3---3---3---3-*|
D|*-1---------------|-1---------------|-1---------------|-1---------------*|
A|------------------|-----------------|-----------------|------------------|
E|------------------|-----------------|-----------------|------------------|
                                                        (This measure twice        
Verse 1:                                                   2nd time thru)
Who can say where the road goes
Where the day flows, 
Only time
And who can say if your love grows
As your heart chose,
Only time

Chorus
   Cm                 Ab                Bb                Eb
e|----------3-------|---------4-------|---------1-------|---------3--------|
B|------1-------1---|-----1-------1---|-----3-------3---|-----4-------4----|
G|*---0---0---0---0-|---1---1---1---1-|---3---3---3---3-|---3---3---3---3-*|
D|*-1---------------|-1---------------|-3---------------|-1---------------*|
A|------------------|-----------------|-----------------|------------------|
E|------------------|-----------------|-----------------|------------------|

Verse
   Eb                 Cm                Ab                Eb
e|----------3-------|---------3-------|---------4-------|---------3--------|
B|------4-------4---|-----1-------1---|-----1-------1---|-----4-------4----|
G|*---3---3---3---3-|---0---0---0---0-|---1---1---1---1-|---3---3---3---3-*|
D|*-1---------------|-1---------------|-1---------------|-1---------------*|
A|------------------|-----------------|-----------------|------------------|
E|------------------|-----------------|-----------------|------------------|
                                                        (This measure twice        
Verse 2:                                                   2nd time thru)
Who can say where the road goes
Where the day flows, 
Only time
And who can say if your love grows
As your heart chose,
Only time

Chorus
   Cm                 Ab                Bb                Eb
e|----------3-------|---------4-------|---------1-------|---------3--------|
B|------1-------1---|-----1-------1---|-----3-------3---|-----4-------4----|
G|*---0---0---0---0-|---1---1---1---1-|---3---3---3---3-|---3---3---3---3-*|
D|*-1---------------|-1---------------|-3---------------|-1---------------*|
A|------------------|-----------------|-----------------|------------------|
E|------------------|-----------------|-----------------|------------------|

Verse 3:
Who can say why your heart sighs
As your love flies, 
Only time
And who can say why your heart cries
When your love flies,
Only time

Chorus

Verse 4:
Who can say why your heart sighs
As your love flies, 
Only time
And who can say why your heart cries
When your love flies,
Only time 

Chorus

Verse 5:
Who can say when the roads meet
That they might be, 
In your heart
And who can say when the day sleeps
If the night keeps,
All your heart
(Transition)
Night keeps
All your heart

Bridge (Strum)
    F#  C#  B   F#     F#  C#  B   F#    F#  C#  B   F#    F#  C#  B   Bb  Eb
e|--2---1---2---2---|--2---1---2---2--|--2---1---2---2--|--2---1---2---1---3--|
B|--2---2---4---2---|--2---2---4---2--|--2---2---4---2--|--2---2---4---3---4--|
G|--3---1---4---3---|--3---1---4---2--|--3---1---4---2--|--3---1---4---3---3--|
D|--4---3---4---4---|--4---3---4---4--|--4---3---4---4--|--4---3---4---3---1--|
A|------------------|-----------------|-----------------|---------------------|
E|------------------|-----------------|-----------------|---------------------|

Verse 6:
Who can say if your love grows
Does your heart shows, 
Only time
And who can say where the road goes
Where the day flows,
Only time

Verse 7:
Who can say if your love grows
Does your heart shows,
Only time
And who can say where the road goes
Where the day flows,
Only time
(Transition)
Who knows, only time
Who knows, only time
End: Eb

Chords
   Eb   Cm   Ab   Bb   F#   C#    B
e|--3----3----4----1----2----1----2-
B|--4----1----1----3----2----2----4-
G|--3----0----1----3----3----1----4-
D|--1----1----1----3----4----3----4-
A|----------------------------------
E|----------------------------------
Tap to rate this tab
 
# A B C D E F G H I J K L M N O P Q R S T U V W X Y Z