Song name
# A B C D E F G H I J K L M N O P Q R S T U V W X Y Z

Enya - Athair A Neamh tab

Help us improve GuitareTab! Take a short survey!
This is just a simple melody line, but it sounds really nice on a classical
guitar. The timing isn't real exact, but it's easy to figure out. If someone
has a version of this that has some harmony or something, let me know because
this is a lovely song.--Joi

Verse |--------------------------------------------------------------------------|
      |-----1-0---------------1-0----0-1---------1-0----------------1-0---0-1----|
      |--2------0-----------2-----0------2-----2-----0------------2-----0-----2--|
      |------------2-0-2-2-------------------2---------2-0-2-2--2----------------|
      |--------------------------------------------------------------------------|
      |--------------------------------------------------------------------------|

Chorus |--------------------------------------------------------------------------|
       |--------1-------------------------1---------------------------------------|
       |--2--0----0----0-0----0-0---2--0----0-----0-0-----0--2--------------------|
       |-------------2------2------------------2-------2--------------------------|
       |--------------------------------------------------------------------------|
       |--------------------------------------------------------------------------|
Related for Athair A Neamh tab