Song name
# A B C D E F G H I J K L M N O P Q R S T U V W X Y Z

Enya - Aniron tab

Aniron, from The Lord of the Rings, by Enya
Tabbed by Rachel Carlyle

Intro
  Slowly & Freely Q=76
  Ab/Eb      E          Abm/Eb     E
 4/4
  Gtr I
  W          W          W           W
|-4--------|-4--------|-7--------|-12----||
|-4--------|-5--------|-9--------|-12----||
|-5--------|-4--------|-8--------|-13----||
|----------|----------|----------|-14----||
|----------|----------|----------|-------||
|----------|----------|----------|-------||
|----------|----------|----------|-------||
|
| Gtr II
| W          W          W           W
|----------|----------|----------|-------||
|-4--------|-5--------|----------|-------||
|----------|----------|----------|-------||
|----------|----------|-1--------|--2----||
|----------|----------|----------|-------||
|----------|----------|----------|-------||


 Verse 1
  Ab/Eb      E                      Ab/Eb      E
 3/4
  H     Q    Q   a E. T T T E..   a H     Q    H     E E
|----------|--------------------|------------|-----------|
|----------|--------------------|------------|-----------|
|-1-----1--|-1---1-3--4-3-1-----|---1-----1--|-1---------|
|-1--------|-2--------------4---|-4-1--------|-2-------4-|
|-3--------|-2------------------|---3--------|-2---------|
|----------|--------------------|------------|-----------|
|----------|--------------------|------------|-----------|
| H.         H.                     H.         H.
|
| H.         H.                     H.         H.
|----------|--------------------|------------|-----------|
|----------|--------------------|------------|-----------|
|----------|--------------------|------------|-----------|
|-1--------|-2------------------|---1--------|-2---------|
|----------|--------------------|------------|-----------|
|----------|--------------------|------------|-----------|
|
| Gtr III
| H     Q    Q   a E. T T T E..   a H     Q    H     E E
|----------|--------------------|------------|-----------|
|----------|--------------------|------------|-----------|
|-1-----1--|-1---1h3--4-3-1-----|------------|-1---------|
|----------|----------------4---|-4-6-----6--|---------4-|
|----------|--------------------|------------|-----------|
|----------|--------------------|------------|-----------|


    Ab/Eb       E                      Ab/Eb      E
    H     E E   Q   a E. T T T E..   a H     Q    H     E E
|-------------|--------------------|------------|------------|
|-------------|--------------------|------------|------------|
|---1---------|-1---1-3--4-3-1-----|---1-----1--|-1----------|
|---1-------4-|-2--------------4---|-4-1--------|-2-------4--|
|---3---------|-2------------------|---3--------|-2----------|
|-------------|--------------------|------------|------------|
|-------------|--------------------|------------|------------|
|   H.          H.                     H.         H.
|
|   H.          H.                     H.         H     Q
|-------------|--------------------|------------|------------|
|-------------|--------------------|------------|------------|
|-------------|--------------------|------------|------------|
|---1---------|-2------------------|---1--------|-2----------|
|-------------|--------------------|------------|------------|
|-------------|--------------------|------------|------------|
|
| a H     Q     Q   a E. T T T E..   a H     Q    H     E E
|-------------|--------------------|------------|------------|
|-------------|--------------------|------------|------------|
|-------------|-1---1h3--4-3-1-----|------------|-1----------|
|-4-6-----6---|----------------4---|-4-6-----6--|---------4--|
|-------------|--------------------|------------|------------|
|-------------|--------------------|------------|------------|


    Ab/Eb        Cb           Gb/Db         Db
                             4/4
  a H     S E.   H     S E.   H.      E E   H.      E E
|--------------|------------|-------------|--------------|
|--------------|------------|-------------|--------------|
|---1----------|------------|-------------|--------------|
|-4-1-----4-3--|-4-----3-1--|-------------|-----------4--|
|---3----------|-6----------|-4---------4-|-4------------|
|--------------|-7----------|-6-------6---|-4------------|
|--------------|------------|-7-----------|-6------------|
|
|   H.           H.           W             W
|--------------|------------|-------------|--------------|
|--------------|------------|-------------|--------------|
|--------------|------------|-------------|--------------|
|---1----------|------------|-------------|--------------|
|--------------|-2----------|-4-----------|-4------------|
|--------------|------------|-------------|--------------|
|
| a H     S E.   H     S E.   H.      E E   H.      E E
|--------------|------------|-------------|--------------|
|--------------|------------|-------------|--------------|
|--------------|------------|-------------|--------------|
|-4-6-----4-3--|-4-----3-1--|-------------|-----------4--|
|--------------|------------|-4-------1-4-|-4------------|
|--------------|------------|-------------|--------------|


  Ab/Eb               Cb           Gb/Db         Db
 3/4                              4/4           5/4
  Q.   +S  T T S E.   H     S E.   H.      E E   H.      +H
|-------------------|------------|-------------|----------------|
|-------------------|------------|-------------|----------------|
|-1----(1)-3-1------|------------|-------------|----------------|
|-1------------4-3--|-4-----3-1--|-------------|----------------|
|-3-----------------|-6----------|-4---------4-|-4-------(4)----|
|-------------------|-7----------|-6-------6---|-4-------(4)----|
|-------------------|------------|-7-----------|-6-------(6)----|
| H.
|
| H.                  H.           W             H.      +H
|-------------------|------------|-------------|----------------|
|-------------------|------------|-------------|----------------|
|-------------------|------------|-------------|----------------|
|-1-----------------|------------|-------------|----------------|
|-------------------|-2----------|-4-----------|-4-------(4)----|
|-------------------|------------|-------------|----------------|
|
| Q.   +S  T T S E.   H     S E.   H.      E E   H.      +H
|-------------------|------------|-------------|----------------|
|-------------------|------------|-------------|----------------|
|-1----(1)-3-1------|------------|-------------|----------------|
|--------------4-3--|-4-----3-1--|-------------|----------------|
|-------------------|------------|-4-------1-4-|-4-------(4)----|
|-------------------|------------|-------------|----------------|


 Verse 2
  Ab/Eb      E                      Ab/Eb      E
 3/4
  H     Q    Q   a E. T T T E..   a H     Q    H     Q
|----------|--------------------|------------|----------|
|----------|--------------------|------------|----------|
|-1-----1--|-1---1-3--4-3-1-----|---1-----1--|-1--------|
|-1--------|-2--------------4---|-4-1--------|-2-----4--|
|-3--------|-2------------------|---3--------|-2--------|
|----------|--------------------|------------|----------|
|----------|--------------------|------------|----------|
| H.         H.                     H.
|
| H.         H.                     H.         H.
|----------|--------------------|------------|----------|
|----------|--------------------|------------|----------|
|----------|--------------------|------------|----------|
|-1--------|-2------------------|---1--------|-2--------|
|----------|--------------------|------------|----------|
|-1--------|-2------------------|---1--------|-2--------|
|
| H     Q    Q   a E. T T T E..   a H     Q    H     Q
|----------|--------------------|------------|----------|
|----------|--------------------|------------|----------|
|-1-----1--|-1---1-3--4-3-1-----|------------|-1--------|
|----------|----------------4---|-4-6-----6--|-------4--|
|----------|--------------------|------------|----------|
|----------|--------------------|------------|----------|


    Ab/Eb      E                      Ab/Eb      E
  a H     Q    Q   a E. T T T E..   a H     Q    H    Q
|------------|--------------------|------------|----------|
|------------|--------------------|------------|----------|
|---1-----1--|-1---1-3--4-3-1-----|---1-----1--|-1--------|
|-4-1--------|-2--------------4---|-4-1--------|-2----4---|
|---3--------|-2------------------|---3--------|-2--------|
|------------|--------------------|------------|----------|
|------------|--------------------|------------|----------|
|   H.         H.                     H.
|
|   H.         H.                     H.         H    Q
|------------|--------------------|------------|----------|
|------------|--------------------|------------|----------|
|------------|--------------------|------------|----------|
|---1--------|-2------------------|---1--------|-2--------|
|------------|--------------------|------------|----------|
|---1--------|-2------------------|---1--------|-2--------|
|
| a H     Q    Q   a E. T T T E..   a H     Q    H    Q
|------------|--------------------|------------|----------|
|------------|--------------------|------------|----------|
|------------|-1---1-3--4-3-1-----|------------|-1--------|
|-4-6-----6--|----------------4---|-4-6-----6--|------4---|
|------------|--------------------|------------|----------|
|------------|--------------------|------------|----------|


  Ab/Eb        Cb           Dbsus2      Db
  H     S E.   H     S E.   H     E E   H.
|------------|------------|-----------|-------*|
|------------|------------|-----------|-------*|
|-1----------|------------|-----------|-------*|
|-1-----4-3--|-4-----3-1--|-----------|-------*|
|-3----------|-6----------|-4-------4-|-4-----*|
|------------|-7----------|-4-----6---|-4-----*|
|------------|------------|-7---------|-6-----*|
|
| H.           H.           H.          H.
|------------|------------|-----------|-------*|
|------------|------------|-----------|-------*|
|------------|------------|-----------|-------*|
|-1----------|------------|-----------|-------*|
|------------|-2----------|-4---------|-4-----*|
|------------|------------|-----------|-------*|
|
| H     S E.   H     S E.   H     E E   H.
|------------|------------|-----------|-------*|
|------------|------------|-----------|-------*|
|-1----------|------------|-----------|-------*|
|-------4-3--|-4-----3-1--|-----------|-------*|
|------------|------------|-4-----1-4-|-4-----*|
|------------|------------|-----------|-------*|


Duration Legend
---------------
W - whole; H - half; Q - quarter; E - 8th; S - 16th; T - 32nd; X - 64th; a - acciaccatura
+ - note tied to previous; . - note dotted; .. - note double dotted
Uncapitalized letters represent notes that are staccato (1/2 duration)
Irregular groupings are notated above the duration line
Duration letters will always appear directly above the note/fret number it represents the
duration for.  Duration letters with no fret number below them represent rests.  Multi-
bar rests are notated in the form Wxn, where n is the number of bars to rest for.  Low
melody durations appear below the staff

Tablature Legend
----------------
 h   - hammer-on
 p   - pull-off
 b   - bend
 pb  - pre-bend
 r   - bend release (if no number after the r, then release immediately)
 /\  - slide into or out of (from/to "nowhere")
 s   - legato slide
 S   - shift slide
 - natural harmonic
[n]  - artificial harmonic
n(n) - tapped harmonic
 ~   - vibrato
 tr  - trill
 T   - tap
 TP  - trem. picking
 PM  - palm muting
\n/  - tremolo bar dip; n = amount to dip
 \n  - tremolo bar down
 n/  - tremolo bar up
/n\  - tremolo bar inverted dip
 =   - hold bend; also acts as connecting device for hammers/pulls
  - volume swell (louder/softer)
 x   - on rhythm slash represents muted slash
 o   - on rhythm slash represents single note slash

Misc Legend
-----------
 |  - bar
||  - double bar
||o - repeat start
o|| - repeat end
*|  - double bar (ending)
 :  - bar (freetime)
 $  - Segno
 &  - Coda
Tempo markers -  = BPM(8/16=s8/s16), where s8 = swing 8ths, s16 = swing 16ths
Tap to rate this tab
# A B C D E F G H I J K L M N O P Q R S T U V W X Y Z