Song name
# A B C D E F G H I J K L M N O P Q R S T U V W X Y Z

Eowyn - Silent Screams tab

Tablature Legend
----------------
(n) - ghost note
> - accentuded note
PH - pitch harmonic
/ -  slide into from below or out of upwards
~ - vibrato
< - fade in



intro start
 
D||--------------------------|
A||--------------------------|
F||-----------(7)--(7)--(7)--|
C||--------------------------|
G||--4--4--4---5----5----5---|
C||--------------------------|


--------------------------|
--------------------------|
-----------(7)--(7)--(7)--|
--------------------------|
--4--4--4---5----5----5---|
--------------------------|


   
------------------|
------------------|
--------(7)--(7)--|
------------------|
--4--4---5----5---|
------------------|


--------------------------|
--------------------------|
-----------(7)--(7)--(7)--|
--------------------------|
--4--4--4---5----5----5---|
--------------------------|



--------------------------|
--------------------------|
-----------(7)--(7)--(7)--|
--------------------------|
--4--4--4---5----5----5---|
--------------------------|



------------------|
------------------|
--------(7)--(7)--|
------------------|
--4--4---5----5---|
------------------|


--------------------------|
--------------------------|
-----------(7)--(7)--(7)--|
--------------------------|
--4--4--4---5----5----5---|
--------------------------|


--------------------------|
--------------------------|
-----------(7)--(7)--(7)--|
--------------------------|
--4--4--4---5----5----5---|
--------------------------|



------------------|
------------------|
--------(7)--(7)--|
------------------|
--4--4---5----5---|
------------------|


--------------------------|
--------------------------|
-----------(7)--(7)--(7)--|
--------------------------|
--4--4--4---5----5----5---|
--------------------------|



--------------------------|--------------|
--------------------------|--------------|
-----------(7)--(7)--(7)--|--------------|
--------------------------|--------------|
--4--4--4---5----5----5---|--4-----------|
--------------------------|--------------|


-----------------|-----------------|
-----------------|-----------------|
--6----6--7------|--6----6--7------|
-----------------|-----------------|
--4----4--5------|--4----4--5------|
-----------------|-----------------|


---------------|-----------------|
---------------|-----------------|
--6--6--6--/7--|--6----6--7------|
---------------|-----------------|
--4--4--4--/5--|--4----4--5------|
---------------|-----------------|



-----------------|---------------|
-----------------|---------------|
--6----6--7------|--6--6--6--/7--|
-----------------|---------------|
--4----4--5------|--4--4--4--/5--|
-----------------|---------------|



-----------------|-----------------|
-----------------|-----------------|
--6----6--7------|--6----6--7------|
-----------------|-----------------|
--4----4--5------|--4----4--5------|
-----------------|-----------------|


---------------|-----------------|
---------------|-----------------|
--6--6--6--/7--|--6----6--7------|
---------------|-----------------|
--4--4--4--/5--|--4----4--5------|
---------------|-----------------|



-----------------|---------------|
-----------------|---------------|
--6----6--7------|--6--6--6--/7--|
-----------------|---------------|
--4----4--5------|--4--4--4--/5--|
-----------------|---------------|




verse 1 (and 3) start


-------------------|-------------------|
-------------------|-------------------|
-------------------|-------------------|
-------------------|-------------------|
--4--4--4--5~------|--4--4--4--5~------|
-------------------|-------------------|



-------------|-------------------|
-------------|-------------------|
-------------|-------------------|
-------------|-------------------|
--5--4--2----|--4--4--4--5~------|
-------------|-------------------|


                                 PH    
-------------------|----------------|
-------------------|----------------|
-------------------|----------------|
-------------------|-----------<>3--|
--4--4--4--5~------|--5--4--2-------|
-------------------|----------------|



-------------------|-------------------|
-------------------|-------------------|
-------------------|-------------------|
-------------------|-------------------|
--4--4--4--5~------|--4--4--4--5~------|
-------------------|-------------------|



-------------|-------------------|
-------------|-------------------|
-------------|-------------------|
-------------|-------------------|
--5--4--2----|--4--4--4--5~------|
-------------|-------------------|


                                 PH  
-------------------|----------------|
-------------------|----------------|
-------------------|----------------|
-------------------|-----------<>3--|
--4--4--4--5~------|--5--4--2-------|
-------------------|----------------|



Chorus start


-----------------|-----------------|
-----------------|-----------------|
-----------------|-----------------|
--4----4----4----|--4----4----4----|
--4----4----4----|--4----4----4----|
--4----4----4----|--4----4----4----|



-----------------|-----------------|
-----------------|-----------------|
-----------------|-----------------|
--4----4----4----|--4----4----4----|
--4----4----4----|--4----4----4----|
--4----4----4----|--4----4----4----|



-----------------|-----------------|
-----------------|-----------------|
-----------------|-----------------|
--4----4----4----|--4----4----4----|
--4----4----4----|--4----4----4----|
--4----4----4----|--4----4----4----|



-----------------|-----------------|
-----------------|-----------------|
--6----6----6----|--6----6----6----|
--6----6----6----|--6----6----6----|
--4----4----4----|--4----4----4----|
-----------------|-----------------|



-----------------|-----------------|
-----------------|-----------------|
--6----6----6----|--6----6----6----|
--6----6----6----|--6----6----6----|
--4----4----4----|--4----4----4----|
-----------------|-----------------|



-----------------|-----------------|
-----------------|-----------------|
--6----6----6----|--6----6----6----|
--6----6----6----|--6----6----6----|
--4----4----4----|--4----4----4----|
-----------------|-----------------|



-----------------|-----------------|
-----------------|-----------------|
-----------------|-----------------|
--4----4----4----|--4----4----4----|
--4----4----4----|--4----4----4----|
--4----4----4----|--4----4----4----|



-----------------|-----------------|
-----------------|-----------------|
-----------------|-----------------|
--4----4----4----|--4----4----4----|
--4----4----4----|--4----4----4----|
--4----4----4----|--4----4----4----|



-----------------|-----------------|
-----------------|-----------------|
-----------------|-----------------|
--4----4----4----|--4----4----4----|
--4----4----4----|--4----4----4----|
--4----4----4----|--4----4----4----|


Bridge


  >  >  >  >          >  >  >  >        
-------------------|-------------------|
-------------------|-------------------|
-------------------|-------------------|
-------------------|-------------------|
--4--4--4--5~------|--4--4--4--5~------|
-------------------|-------------------|


  >  >  >       >  >  >  >        
-------------|-------------------|
-------------|-------------------|
-------------|-------------------|
-------------|-------------------|
--5--4--2----|--4--4--4--5~------|
-------------|-------------------|


  >  >  >  >          >  >  >     
-------------------|-------------|
-------------------|-------------|
-------------------|-------------|
-------------------|-------------|
--4--4--4--5~------|--5--4--2----|
-------------------|-------------|


verse 2 start

(alternate with speeds)

  PM  PM        PM  PM        PM  PM      
-------------|-------------|-------------|
-------------|-------------|-------------|
-------------|-------------|-------------|
--0---0------|--0---0------|--0---0------|
--0---0------|--0---0------|--0---0------|
--0---0------|--0---0------|--0---0------|


  PM  PM                      PM  PM      
-------------|-------------|-------------|
-------------|-------------|-------------|
-------------|-------------|-------------|
--0---0------|-------------|--0---0------|
--0---0------|-------------|--0---0------|
--0---0------|--0---0--2---|--0---0------|


  PM  PM        PM  PM        PM  PM      
-------------|-------------|-------------|
-------------|-------------|-------------|
-------------|-------------|-------------|
--0---0------|--0---0------|--0---0------|
--0---0------|--0---0------|--0---0------|
--0---0------|--0---0------|--0---0------|



-------------|------||
-------------|------||
-------------|------||
-------------|------||
-------------|------||
--0---0--2---|------||

Return to chorus

Tap to rate this tab
 
# A B C D E F G H I J K L M N O P Q R S T U V W X Y Z